MUZBANK



A Most Complete Bank Of Music Information

МУЗЫКАЛЬНО-ИНФОРМАЦИОННЫЙ БАНК

Поиск по сайту







    BBouncing Souls • The Freaks Nerds And Romantics (аккорды и текст - chords & lyrics)


    191

    Print

    Видео «The Freaks Nerds And Romantics (Bouncing Souls)»

    Видео клипы к песне подбираются автоматически сайтом youtube. Возможны некоторые несоответствия клипов песне.

    ↑ Спрятать рекламу ↑



    Download



     
    
    
    Album: Maniacal Laughter
    Artist: Bouncing Souls
    Song: The Freaks, Nerds, & Romantics
    
    INTRO
    1:----------------2222---
    2:----3---3--2222-3333---
    3:---2-2-2-2-2222-2222---
    4:--4---5----2222--------
    5:-----------0000--------
    6:-----------------------    REPEAT TWICE
    
    1:--3333-2222------2222--3333-2222------2(Let Ring)--
    2:--3333-3333-2222-3333--3333-3333-2222-3(Let Ring)--
    3:--0000-2222-2222-2222--0000-2222-2222-2(Let Ring)--
    4:--0000------2222-------0000------2222--------------
    5:--2222------0000-------2222------0000--------------
    6:--3333-----------------3333------------------------
    
    now just do this for all the rest of this song
    1:-----------------------
    2:-----------------------
    3:-----9-----------------
    4:-----9-----7-----9-----
    5:-----7-----7-----9-----
    6:-----------5-----7-----
     

    Тональность:

    Нет текста!



    Назад
    Рекомендуем посмотреть другие песни исполнителя «Bouncing Souls»:

    • Комментарии Facebook ()
    • Комментарии ВКонтакте



    Добавить в Избранное Браузера
    Сохранить здесь Очистить


    x

    0


    +
    -

    +
    -

    -

    Авторизация





    Зарегистрироваться

    M

    Дата и время

    • 11:16:04
       

    Социальные ссылки


    Наши приложения

    • Muzbank App Play Market
    • Muzbank Amazon App