MUZBANK



A Most Complete Bank Of Music Information

МУЗЫКАЛЬНО-ИНФОРМАЦИОННЫЙ БАНК

Поиск по сайту







    BBouncing Souls • The Nerds The Freaks And The Roma (аккорды и текст - chords & lyrics)


    226

    Print

    Видео «The Nerds The Freaks And The Roma (Bouncing Souls)»

    Видео клипы к песне подбираются автоматически сайтом youtube. Возможны некоторые несоответствия клипов песне.

    ↑ Спрятать рекламу ↑



    Download


     
    
    
    Author/Artist: The Bouncing
    souls
    Title: The Nerds, The Freaks and the Romantics
    Album: Maniacal laughter
    Transcribed by: SK8BOB
    Email: sk8bob@geocities.com
    
    --------------6777--------------6777------------------------------------------
    
    ------5555-77-----------5555-77------5555---------------5555------------------
    
    -5555--------------5555-------------------5555-0000-555------5555-0000-555----
    
    ------------------------------------------------------------------------------
    
    ------------------|
    -045-77777777-554-|
    ------------------|
    ------------------|
    intro
    
    -----------------667-9-|
    ---------45-7777-------|
    -5555555---------------|
    -----------------------|
    verse
    
    -|---------------|-----------------|
    -|---555---------|-555-------------|
    -|555----000-555-|-----555-000-555-|
    -|---------------|-----------------|
    chorusthing play 4 times each
    
    ------------------------|
    ---45-77---45-7777-55-4-|
    -5-------5--------------|
    ------------------------|
     

    Тональность:

    Нет текста!



    Назад
    Рекомендуем посмотреть другие песни исполнителя «Bouncing Souls»:

    • Комментарии Facebook ()
    • Комментарии ВКонтакте



    Добавить в Избранное Браузера
    Сохранить здесь Очистить


    x

    0


    +
    -

    +
    -

    -

    Авторизация





    Зарегистрироваться

    M

    Дата и время

    • 00:21:05
       

    Социальные ссылки


    Наши приложения

    • Muzbank App Play Market
    • Muzbank Amazon App