MUZBANK



A Most Complete Bank Of Music Information

МУЗЫКАЛЬНО-ИНФОРМАЦИОННЫЙ БАНК

Поиск по сайту







    BBowie David • Afraid (аккорды и текст - chords & lyrics)


    274

    Print

    Видео «Afraid (Bowie David)»

    Видео клипы к песне подбираются автоматически сайтом youtube. Возможны некоторые несоответствия клипов песне.

    ↑ Спрятать рекламу ↑



    Download


     
    
    
    David Bowie - Afraid
    Tabbed By: Myke
    EMail: A_Violet_Fluid@hotmail.com
    
    Standard Tuning
    
    Intro:
    
    |--11-11-11--11-11-11--11-11--10-10-10--10-10-10--10-10---9---9---9--9---9--9--|
    |--13-13-13--13-13-13--13-13--11-11-11--11-11-11--11-11--10--10--10-10--10-10--|
    |--12-12-12--12-12-12--12-12--10-10-10--10-10-10--10-10--10--10--10-10--10-10--|
    |------------------------------------------------------------------------------|
    |------------------------------------------------------------------------------|
    |------------------------------------------------------------------------------|
    
    Verse:
    
    |--------------------------------------------------------|
    |--------------------------------------------------------|
    |--12-12-12--12-12-12--12-12--10-10-10--10-10-10--10-10--|
    |--12-12-12--12-12-12--12-12--10-10-10--10-10-10--10-10--|
    |--10-10-10--10-10-10--10-10---8--8--8---8--8--8---8--8--|
    |--------------------------------------------------------|
       ....................................................
    
    |----------------------------------------|
    |----------------------------------------|
    |--9-9-9--9-9-9--9-9--8-8-8--8-8-8--8-8--|
    |--9-9-9--9-9-9--9-9--8-8-8--8-8-8--8-8--|
    |--7-7-7--7-7-7--7-7--6-6-6--6-6-6--6-6--|
    |----------------------------------------|
       ....................................
    
    Does Anyone know The Chords For The Bridge Or Chorus?
    If You Do, Please Email Me To Satisfy My Curiosity.
    
    A_Violet_Fluid@hotmail.com
     

    Тональность:

    Нет текста!



    Назад
    Рекомендуем посмотреть другие песни исполнителя «Bowie David»:

    • Комментарии Facebook ()
    • Комментарии ВКонтакте



    Добавить в Избранное Браузера
    Сохранить здесь Очистить


    x

    0


    +
    -

    +
    -

    -

    Авторизация





    Зарегистрироваться

    M

    Дата и время

    • 11:16:04
       

    Социальные ссылки


    Наши приложения

    • Muzbank App Play Market
    • Muzbank Amazon App