MUZBANK



A Most Complete Bank Of Music Information

МУЗЫКАЛЬНО-ИНФОРМАЦИОННЫЙ БАНК

Поиск по сайту







    BBowie David • Cactus (аккорды и текст - chords & lyrics)


    296

    Print

    Видео «Cactus (Bowie David)»

    Видео клипы к песне подбираются автоматически сайтом youtube. Возможны некоторые несоответствия клипов песне.

    ↑ Спрятать рекламу ↑



    Download



    Tuning : E A D G B E Time Signature: 4/4
    
    | | | | | | | |
    |--------------------------------|
    |--------------------------------|
    |--------------------------------|
    |2---2---2---2---2---2---2---2---|
    |0---0---0---0---0---0---0---0---|
    |--------------------------------|
    
    | | | | | | | |
    |--------------------------------|--------------------------------|
    |--------------------------------|--------------------------------|
    |--------------------------------|--------------------------------|
    |2---2---2---2---2---2---2---2---|2---------2---------2---------2-|
    |0---0---0---0---0---0---0---0---|0---------0---------0---------0-|
    |--------------------------------|--------------------------------|
    
    | | | | | | | |
    |--------------------------------|--------------------------------|
    |--------------------------------|--------------------------------|
    |--------------------------------|--------------------------------|
    |------2-----2-----2---2---4---2-|2---2---4---2---2---2---4---2---|
    |------0-----0-----0---0---0---0-|0---0---0---0---0---0---0---0---|
    |--------------------------------|--------------------------------|
    "Sitting here wishing on a cement floor"
    | | | | | | | |
    |--------------------------------|--------------------------------|
    |--------------------------------|--------------------------------|
    |--------------------------------|--------------------------------|
    |2---2---4---2---2---2---4---2---|2---2---4---2---2---2---4---2---|
    |0---0---0---0---0---0---0---0---|0---0---0---0---0---0---0---0---|
    |--------------------------------|--------------------------------|
    "Just wishing that I had just something you wore"
    | | | | | | | |
    |--------------------------------|--------------------------------|
    |--------------------------------|--------------------------------|
    |--------------------------------|--------------------------------|
    |2---2---4---2---5---5---5---5---|5---5---5---5---2---2---4---2---|
    |0---0---0---0---3---3---3---3---|3---3---3---3---0---0---0---0---|
    |--------------------------------|--------------------------------|
    "I put it on . . "
    | | | | | | | |
    |--------------------------------|--------------------------------|
    |--------------------------------|--------------------------------|
    |--------------------------------|--------------------------------|
    |2---2---4---2---2---2---4---2---|2---2---4---2---5---5---5---2---|
    |0---0---0---0---0---0---0---0---|0---0---0---0---3---3---3---0---|
    |--------------------------------|--------------------------------|
    " . . when I go lonely" "Will you take off your dress and . . "
    | | | | | | | |
    |--------------------------------|--------2---2---2---2---1---1---|
    |--------------------------------|--------3---3---3---3---1---1---|
    |--------------------------------|--------2---2---2---2---2---2---|
    |2---2---2---5---5---5---2---2---|2---2-------------------3---3---|
    |0---0---0---3---3---3---0---0---|0---0-------------------3---3---|
    |--------------------------------|------------------------1---1---|
    " . . and send it to me?" ENTER: Electric (acoustic still backs)
    | | | | | | | |
    |1---1---3---3---3---5-----------|--------------------------------|
    |1---1---0---0---0---5-----------|--------------------------------|
    |2---2---0---0---0---6-----------|--------------------------------|
    |3---3---0---0---0---7---2---2---|2---2---2---2---2---2---2---2---|
    |3---3---2---2---2---7---0---0---|0---0---0---0---0---0---0---0---|
    |1---1---3---3---3---5-----------|--------------------------------|
    
    Continue with this through the second verse until right after he sings
    "Make your dress all wet and send it to me?" during the second verse.
    Then on to the bridge.
    
    2nd verse:
    
    "Will you take off you dress and send it to . . . "
    |--------------------------------|--------------------------------|
    |--------------------------------|--------------------------------|
    |--------------------------------|--------------------------------|
    |2---2---2---7-------7-----------|--------------------------------|
    |0---0---0---5-------5-------3---|----3---------5---------5-------|
    |----------------------------1---|----1---------3---------3-------|
    " . . me?"
    | | | | | | | |
    |--------------------------------|--------------------------------|
    |--------------------------------|--------------------------------|
    |--------------------------------|--------------------------------|
    |2---2---2---2---2---2---2---2---|2---2---2---2---2---2---2---2---|
    |0---0---0---0---0---0---0---0---|0---0---0---0---0---0---0---0---|
    |--------------------------------|--------------------------------|
    
    Bridge:
    A A Dm9 Dm9
    | | | | | | | |
    |--------------------------------|--------------------------------|
    |--------------------------------|--------------------------------|
    |--------------------------------|--------------------------------|
    |2---2---2---2---2---2---2---2---|2---2---2---2---2---2---2---2---|
    |0---0---0---0---0---0---0---0---|0---0---0---0---0---0---0---0---|
    |--------------------------------|--------------------------------|
    C C A A
    | | | | | | | |
    |--------------------------------|--------------------------------|
    |--------------------------------|--------------------------------|
    |--------------------------------|--------------------------------|
    |5---5---5---5---5---5---5---5---|2---2---2---2---2---2---2---2---|
    |3---3---3---3---3---3---3---3---|0---0---0---0---0---0---0---0---|
    |--------------------------------|--------------------------------|
    
    
    Back to verse for "I miss your soup, and I miss your bread . . . "
    
    Follow this with the chorus of D F G A for "Just wear that dress
    when you di-i-i-i-ine."
    
    Then comes a second Bridge for some very narcissistic lyrics and
    a very basic A G D progression of chords.
    
    | | | | | | | |
    |--------------------------------|--------------------------------|
    |--------------------------------|--------------------------------|
    |--------------------------------|--------------------------------|
    |--------------------------------|--------------------------------|
    |7-------7---5-------12--------7-|------7---5-------12--------7---|
    |5-------5---3-------10--------5-|------5---3-------10--------5---|
    
    | | | | | | | |
    |--------------------------------|--------------------------------|
    |--------------------------------|--------------------------------|
    |--------------------------------|--------------------------------|
    |--------------------------------|--------------------------------|
    |----7---5-------12--------7-----|--7---5-------12--------7-------|
    |----5---3-------10--------5-----|--5---3-------10--------5-------|
    
    | | | | | | | |
    |--------------------------------|--------------------------------|
    |--------------------------------|--------------------------------|
    |--------------------------------|--------------------------------|
    |--------------------------------|--------------------------------|
    |7---7-------7-------7-----------|--------------------------------|
    |5---5-------5-------5-----------|--------------------------------|
    
    Then back to acoustic intro. The rest of the song is pretty
    self-explanatory, save for a few guitar lead inserts and other
    effects.
    
    During the "D-A-V-I-D" section of the song, this fill is played
    over and over about ten times.
    
    |--------------------------------|--------------------------------|
    |--------------------------------|--------------------------------|
    |--------------------------------|--------------------------------|
    |--------------------------------|--------------------------------|
    |10----0---5b6-----0-------------|--------------------------------|
    |--------------------------------|--------------------------------|
    
    This last fill is played near the end during the whole verse
    and is almost inaudible. But it is there. It ends the song. Let
    this ring to end it.
    
    | | | | | | | |
    |--------------------------------|--------------------------------|
    |14------------------------------|--14------17--------------------|
    |14------------------------------|------14------14----------------|
    |--------------------------------|--------------------------------|
    |--------------------------------|--------------------------------|
    |--------------------------------|--------------------------------|
    

    Тональность:

    Нет текста!



    Назад
    Рекомендуем посмотреть другие песни исполнителя «Bowie David»:

    • Комментарии Facebook ()
    • Комментарии ВКонтакте



    Добавить в Избранное Браузера
    Сохранить здесь Очистить


    x

    0


    +
    -

    +
    -

    -

    Авторизация





    Зарегистрироваться

    M

    Дата и время

    • 10:01:24
       

    Социальные ссылки


    Наши приложения

    • Muzbank App Play Market
    • Muzbank Amazon App