MUZBANK



A Most Complete Bank Of Music Information

МУЗЫКАЛЬНО-ИНФОРМАЦИОННЫЙ БАНК

Поиск по сайту







    BBowling For Soup • Belgium (аккорды и текст - chords & lyrics)


    316

    Print

    Видео «Belgium (Bowling For Soup)»

    Видео клипы к песне подбираются автоматически сайтом youtube. Возможны некоторые несоответствия клипов песне.

    ↑ Спрятать рекламу ↑



    Download



     
    
    
    Band:Bowling For Soup
    Tab: Belgium
    Mike made this-Punkfreak8@aol.com
    
    Intro:
    E-------------------------
    B-------------------------
    G-------------------------
    D-9--4--5--7-5-7-9-9--4--2
    A-------------------------
    E-------------------------
    
    Verse:
    E----------------
    B----------------
    G----7--5--9-7---
    D-5--7--5--9-7---
    A-5--5--3--7-5---
    E-3--------------
    
    Chorus:
    E---------------------
    B---------------------
    G------7777-9999-55-77
    D-5555-7777-9999-55-77
    A-5555-5555-7777-33-55
    E-3333----------------
    
    end song on G
    
    In my opinion probably one of the best songs on the cd just real 
    easy...listen to cd for exact timing.
    any questions coments email mike at Punkfreak8@aol.com
     

    Тональность:

    Нет текста!



    Назад
    Рекомендуем посмотреть другие песни исполнителя «Bowling For Soup»:

    • Комментарии Facebook ()
    • Комментарии ВКонтакте



    Добавить в Избранное Браузера
    Сохранить здесь Очистить


    x

    0


    +
    -

    +
    -

    -

    Авторизация





    Зарегистрироваться

    M

    Дата и время

    • 23:29:11
       

    Социальные ссылки


    Наши приложения

    • Muzbank App Play Market
    • Muzbank Amazon App