MUZBANK



A Most Complete Bank Of Music Information

МУЗЫКАЛЬНО-ИНФОРМАЦИОННЫЙ БАНК

Поиск по сайту







    BBoxcar Racer • Elevator (аккорды и текст - chords & lyrics)


    211

    Print

    Видео «Elevator (Boxcar Racer)»

    Видео клипы к песне подбираются автоматически сайтом youtube. Возможны некоторые несоответствия клипов песне.

    ↑ Спрятать рекламу ↑



    Download



     This vacation's useless
    These white pills aren't kind
    I've given a lot of thought on this 13-hour drive
    I miss the grinding concrete where we sat past 8 or 9
    
    And slowly finished laughing in the glow of our headlights
    I've given a lot of thought to the nights we use to have
    The days have come and gone
    Our lives went by so fast
    
    I faintly remember breathing on your bedroom floor
    Where I laid and told you, but you sweared you loved me more
    
    Do you care if I don't know what to say
    Will you sleep tonight or will you think of me
    Will I shake this off pretend its all okay
    That there's someone out there who feels just like me
    There is
    
    Those notes you wrote me
    I've kept them all
    I've given a lot of thought of how to write you back this fall
    With every single letter in every single word
    There will be a hidden message about a boy that
    Loves a girl
    
    Do you care if I don't know what to say
    Will you sleep tonight or will you think of me
    Will I shake this off, pretend its all okay
    That there's someone out there who feels just like me
    There is
    
    Do you care if I don't know what to say?
    Will you sleep tonight or will you think of me
    Will I shake this off, pretend its all okay
    That there's someone out there who feels just like me
    
    Do you care if I don't know what to say?
    Will you sleep tonight or will you think of me
    Will I shake this off, pretend its all okay
    That there's someone out there who feels just like me
    There is...
    
    
    You come in at an offbeat so listen carefully
    E|---------------------------------|
    B|---------------------------------|
    G|---------0-----0-----0-------0---|
    D|---------4-----5-----5-------5---|
    A|---------X-----X-----X-------X---|
    E|-3-3-3-3-3-3-3-3-3-3-3-3-3-3-3-3-|
                                        X a lot till fadeout
    E|---------------------------------|
    B|-------------0-------------------|
    G|-----0-------0-------0-------0---|
    D|-----10------9-------9-------9---|
    A|-----X-------X-------X-------X---|
    E|-8-8-8-8-8-8-8-8-7-7-7-7-7-7-7-7-|
    
    
    Plus I’m pretty sure the guitar 2 part that 
    the other guy that tried to tab didn’t 
    even spell the name or tab right is :
    E|---------------------------------|
    B|---------------------------------|
    G|---------------------------------|
    D|-5-5-5-5-5-5-5-5-5-5-5-5-5-5-5-5/|
    A|-X-X-X-X-X-X-X-X-X-X-X-X-X-X-X-X-|
    E|-3-3-3-3-3-3-3-3-3-3-3-3-3-3-3-3/|
                                          X a lot till fadeout
    E|---------------------------------|
    B|---------------------------------|
    G|---------------------------------|
    D|/10101010101010109-9-9-9-9-9-9-9-|
    A|-X-X-X-X-X-X-X-X-X-X-X-X-X-X-X-X-|
    E|/8-8-8-8-8-8-8-8-7-7-7-7-7-7-7-7-| 

    Тональность:

    Нет текста!



    Назад
    Рекомендуем посмотреть другие песни исполнителя «Boxcar Racer»:

    • Комментарии Facebook ()
    • Комментарии ВКонтакте



    Добавить в Избранное Браузера
    Сохранить здесь Очистить


    x

    0


    +
    -

    +
    -

    -

    Авторизация





    Зарегистрироваться

    M

    Дата и время

    • 22:29:11
       

    Социальные ссылки


    Наши приложения

    • Muzbank App Play Market
    • Muzbank Amazon App