MUZBANK



A Most Complete Bank Of Music Information

МУЗЫКАЛЬНО-ИНФОРМАЦИОННЫЙ БАНК

Поиск по сайту







    BBoxcar Racer • Letters To God (аккорды и текст - chords & lyrics)


    279

    Print

    Видео «Letters To God (Boxcar Racer)»

    Видео клипы к песне подбираются автоматически сайтом youtube. Возможны некоторые несоответствия клипов песне.

    ↑ Спрятать рекламу ↑



    Download



     
    
    
    Artist: Boxcar Racer
    Albumn: Boxcar Racer
    Song: Letters to God
    Tabbed by: Ransom
    
    Intro/Pre-Verse
    
    E----------------------------------------
    B----------------------------------------
    G----------------------------------------
    D----222222222--4--555555555-------------        X2
    A----222222222--4--555555555-------------
    e---------------2--333333333-------------
    
    Verse
    
    E----------------------------------------
    B----------------------------------------
    G----2222222222--------------------------
    D----2222222222--5555555555--------------        X4
    A----2222222222--5555555555--------------
    e----------------3333333333--------------
    
    Chorus
    
    E------------------------------------------------------------
    B------------------------------------------------------------
    G----------------5555555555--------------7777777777----------
    D----2222222222--5555555555--5555555555--7777777777----------        X2   
    A----2222222222--3333333333--5555555555--5555555555----------
    e----------------------------3333333333----------------------
    
    Pre-Verse
    
    E----------------------------------------
    B----------------------------------------
    G----------------------------------------
    D----222222222--4--555555555-------------        X2
    A----222222222--4--555555555-------------
    e---------------2--333333333-------------
    
    Verse
    
    E----------------------------------------
    B----------------------------------------
    G----2222222222--------------------------
    D----2222222222--5555555555--------------        X4
    A----2222222222--5555555555--------------
    e----------------3333333333--------------
    
    Chorus
    
    E------------------------------------------------------------
    B------------------------------------------------------------
    G----------------5555555555--------------7777777777----------
    D----2222222222--5555555555--5555555555--7777777777----------        X2   
    A----2222222222--3333333333--5555555555--5555555555----------
    e----------------------------3333333333----------------------
    
    Bridge
    
    E------------------------------------------------------------
    B------------------------------------------------------------
    G------------------------------------------------------------
    D----5555555555--7777777777--9999999999--7777777777----------         
    A----5555555555--7777777777--9999999999--7777777777----------
    e----3333333333--5555555555--7777777777--5555555555----------
    
    E------------------------------------------------------------
    B------------------------------------------------------------
    G------------------------------------------------------------
    D----5555555555--7777777777--9999999999--10101010101010101010        X2         
    A----5555555555--7777777777--9999999999--10101010101010101010 
    e----3333333333--5555555555--7777777777--9-9-9-9-9-9-9-9-9-9-
    
    Pre-Verse2(Overdrive)
    
    E----------------------------------------
    B----------------------------------------
    G----------------------------------------
    D----222--222--2--4--555--555--55--------        X2
    A----222--222--2--4--555--555--55--------
    e-----------------2--333--333--33--------
    
    Pre-Verse(Overdrive)
    
    E----------------------------------------
    B----------------------------------------
    G----------------------------------------
    D----222222222--4--555555555-------------        X2
    A----222222222--4--555555555-------------
    e---------------2--333333333-------------
    
    Chorus(Overdrive)
    
    E------------------------------------------------------------
    B------------------------------------------------------------
    G----------------5555555555--------------7777777777----------
    D----2222222222--5555555555--5555555555--7777777777----------        X4   
    A----2222222222--3333333333--5555555555--5555555555----------
    e----------------------------3333333333----------------------
    
    End(Overdrive)
    
    E--------
    B--------
    G--------
    D----22--
    A----22--
    e--------
     

    Тональность:

    Нет текста!



    Назад
    Рекомендуем посмотреть другие песни исполнителя «Boxcar Racer»:

    • Комментарии Facebook ()
    • Комментарии ВКонтакте



    Добавить в Избранное Браузера
    Сохранить здесь Очистить


    x

    0


    +
    -

    +
    -

    -

    Авторизация





    Зарегистрироваться

    M

    Дата и время

    • 13:23:00
       

    Социальные ссылки


    Наши приложения

    • Muzbank App Play Market
    • Muzbank Amazon App