MUZBANK



A Most Complete Bank Of Music Information

МУЗЫКАЛЬНО-ИНФОРМАЦИОННЫЙ БАНК

Поиск по сайту







    BBoxcar Racer • Tiny Voices (аккорды и текст - chords & lyrics)


    215

    Print

    Видео «Tiny Voices (Boxcar Racer)»

    Видео клипы к песне подбираются автоматически сайтом youtube. Возможны некоторые несоответствия клипов песне.

    ↑ Спрятать рекламу ↑



    Download



     
    
    
    Palm Mute=.....
    
    Intro
    e ---------------------
    B ---------------------
    G -------7-7-7---6-6---
    D -7-7-7-7-7-7--6-6-2-
    A -x-x-x-5-5-5--4-4-0-
    E -5-5-5---------------
    
    Verse		  			 
    e ---------------|
    B ---------------|
    G ---------------|
    D -2-2-2-2-2-2-2-|
    A -0-0-0-0-0-0-0-|
    E ---------------|
    
    
    Chorus
    e ---------------------------------------------------------
    B ---------------------------------------------------------
    G -----------9-9-9-9-9-------------------------------------
    D -2-2-2-2-2-9-9-9-9-9-2-2-2-2-2-2-6-6-6-6-6-7-7-7-7-7-7-7-
    A -2-2-2-2-2-7-7-7-7-7-2-2-2-2-2-2-6-6-6-6-6-7-7-7-7-7-7-7-
    E -0-0-0-0-0-----------0-0-0-0-0-0-4-4-4-4-4-5-5-5-5-5-5-5-
    					     ...........	  
    Bridge (clean)
    e -------------------------------------------------------
    B -------------------------------------------------------
    G -------------------------------------------------------
    D ------2-----2---2-----4-----4---4----------------------
    A --2-2---2-2---2---2-2---2-2---2------------------------
    E --------------------------------------4-5-5-0-4-5-5----
     

    Тональность:

    Нет текста!



    Назад
    Рекомендуем посмотреть другие песни исполнителя «Boxcar Racer»:

    • Комментарии Facebook ()
    • Комментарии ВКонтакте



    Добавить в Избранное Браузера
    Сохранить здесь Очистить


    x

    0


    +
    -

    +
    -

    -

    Авторизация





    Зарегистрироваться

    M

    Дата и время

    • 05:25:18
       

    Социальные ссылки


    Наши приложения

    • Muzbank App Play Market
    • Muzbank Amazon App