MUZBANK



A Most Complete Bank Of Music Information

МУЗЫКАЛЬНО-ИНФОРМАЦИОННЫЙ БАНК

Поиск по сайту







    BBoy Sets Fire • Cavity (аккорды и текст - chords & lyrics)


    268

    Print

    Видео «Cavity (Boy Sets Fire)»

    Видео клипы к песне подбираются автоматически сайтом youtube. Возможны некоторые несоответствия клипов песне.

    ↑ Спрятать рекламу ↑



    Download


     
    
    
    Artist: Boy Sets Fire
    Song: Cavity
    Album: In Crysalis
    Tabbed by: Dan C.
    
    ~ = Let ring
    
    (10 seconds in)
    Chorus
    G|----------0-0000000------------------0-0000000-222-0-2-0
    D|-0-0-3-2------------3-0-0000000-3-2-----------------------
    A|-----------------------3-----------------------------------
    E|----------------------------------------------------------
    x2, second time on the first part, dont 
    	play the open d in the beginning
    
    Verse
    G|---------
    D|-3----3---0
    A|--3-0--3-
    E|--------
    
    G|------------------------------------
    D|-----------------------00000000
    A|-11111111-33333333----------	x2
    E|---------------------------------
    
    then Chorus,
    Verse,
    Chorus,
    then,
    
    G|------2222-----3333-----2222-----3333
    D|-0000-----2222-----3333-----5555-----
    A|------------------------------------------
    E|------------------------------------------- x10
    
    Ending
    G|--------
    D|-0~--
    A|--------
    E|---------
    
    Any questions, comments, or suggestions for other tabs? 
    Email me at Lenderhavn@aol.com
     

    Тональность:

    Нет текста!



    Назад
    Рекомендуем посмотреть другие песни исполнителя «Boy Sets Fire»:

    • Комментарии Facebook ()
    • Комментарии ВКонтакте



    Добавить в Избранное Браузера
    Сохранить здесь Очистить


    x

    0


    +
    -

    +
    -

    -

    Авторизация





    Зарегистрироваться

    M

    Дата и время

    • 10:04:49
       

    Социальные ссылки


    Наши приложения

    • Muzbank App Play Market
    • Muzbank Amazon App