MUZBANK



A Most Complete Bank Of Music Information

МУЗЫКАЛЬНО-ИНФОРМАЦИОННЫЙ БАНК

Поиск по сайту







    BBracket • 2 Rak 005 (аккорды и текст - chords & lyrics)


    226

    Print

    Видео «2 Rak 005 (Bracket)»

    Видео клипы к песне подбираются автоматически сайтом youtube. Возможны некоторые несоответствия клипов песне.

    ↑ Спрятать рекламу ↑



    Download


     Intro
    
    E|---------------------|
    B|---------------------|
    G|---------------------|
    D|--99999--999--99999--|
    A|--99999--999--99999--|
    E|--77777--777--77777--|
    
    Verse
    
    E|------------------------------------------|
    B|------------------------------------------|
    G|----------------------99999999------------|
    D|--99999999--44444444--99999999--99999999--|  X 2
    A|--99999999--44444444--77777777--99999999--|
    E|--77777777--22222222------------77777777--|
    
    Bridge
    
    E|--------------------------------------------|
    B|--------------------------------------------|
    G|--------------------------------9999--------|
    D|--66666666--99999999--66666666--9999--4444--|
    A|--66666666--99999999--66666666--7777--4444--|
    E|--44444444--77777777--44444444--------2222--|
    
    
    E|------------------------------------------|
    B|------------------------------------------|
    G|--------------------------------66666666--|
    D|--66666666--99999999--66666666--66666666--|
    A|--66666666--99999999--66666666--44444444--|
    E|--44444444--77777777--44444444------------|
    
    
    E|------------------------------------------|
    B|------------------------------------------|
    G|--99999999----------------------99999999--|
    D|--99999999--99999999--44444444--99999999--|
    A|--77777777--99999999--44444444--77777777--|
    E|------------77777777--22222222------------|
    
    
    E|---------------------------------|
    B|---------------------------------|
    G|-----99------99------99------99--|
    D|--9--99--99--99--99--99--99--99--|
    A|--9--77--99--77--99--77--99--77--|
    E|--7------77------77------77------|
    
    Verse
    
    E|------------------------------------------|
    B|------------------------------------------|
    G|----------------------99999999------------|
    D|--99999999--44444444--99999999--99999999--|  X 2
    A|--99999999--44444444--77777777--99999999--|
    E|--77777777--22222222------------77777777--|
    
    
    Bridge
    
    
    pre solo
    
    E|------------------------------|
    B|------------------------------|
    G|------------------9999--------|
    D|--4~-99999999--4~-9999--4444--|
    A|--4~-99999999--4~-7777--4444--|
    E|--2~-77777777--2~-------2222--|
    
    plays with solo
    
    
    E|-----------|
    B|-----------|
    G|-----9999--|
    D|--9--9999--|  X 8
    A|--9--7777--|
    E|--7--------|
    
    order:
    
    Intro
    
    Verse (PM)
    
    Bridge.
    
    
    i hope you don't know my name
    it just wouldn't be the same
    i'm confused about all the things i do
    'cause nothing that i say is true
    and if i tell a lie, please be my alibi
    i wanna make believe it's real
    that's just the way i feel
    there's nothing left to fabricate
    did i mention that oh this is all a lie
    i hide my identity
    truth is my worst enemy
    i'm confused about all the things i do
    'cause nothing that i say is true
    and if i tell a lie, please be my alibi
    i wanna make believe it's real
    that's just the way i feel
    there's nothing left to fabricate 

    Тональность:

    Нет текста!



    Назад
    Рекомендуем посмотреть другие песни исполнителя «Bracket»:

    • Комментарии Facebook ()
    • Комментарии ВКонтакте



    Добавить в Избранное Браузера
    Сохранить здесь Очистить


    x

    0


    +
    -

    +
    -

    -

    Авторизация





    Зарегистрироваться

    M

    Дата и время

    • 04:24:21
       

    Социальные ссылки


    Наши приложения

    • Muzbank App Play Market
    • Muzbank Amazon App