MUZBANK



A Most Complete Bank Of Music Information

МУЗЫКАЛЬНО-ИНФОРМАЦИОННЫЙ БАНК

Поиск по сайту







    BBranch Michelle • Breathe (аккорды и текст - chords & lyrics)


    235

    Print

    Видео «Breathe (Branch Michelle)»

    Видео клипы к песне подбираются автоматически сайтом youtube. Возможны некоторые несоответствия клипов песне.

    ↑ Спрятать рекламу ↑



    Download


     
    
    
    Breathe                                                         
    Michelle Branch / John Shanks
    Michelle Branch part- guitare acoustique
    Accordage E avec capo sur F, 
    
    
    F ||--------------------------|--------------------------|--------------------------|--------------------------|
    C ||--------------------------|--------------------------|--------------------------|--------------------------|
    G#||--------4-----4--2-----4--|--------4-----4--4--2--4--|--------4-----4--4-----4--|--------4-----4--4--------|
    D#||--------2-----2--2-----2--|--------2-----2--2--2--2--|--------2-----2--2-----2--|--------2-----2--2--------|
    A#||--0--0--0--0--0--0--0--0--|--0--0--0--0--0--0--0--0--|--------------------------|--------------------------|
    F ||--------------------------|--------------------------|--4--4--4--4--4--4--4--4--|--4--4--4--4--4--4--4--4--|
    
    
    --------------------------|--------------------------|--------------------------|--------------------------|
    --------------------------|--------------------------|--------------------------|--------------------------|
    --------4-----4--2-----4--|--------4-----4--4--2--4--|--------4-----4--4-----4--|--------4-----4--4--------|
    --------2-----2--2-----2--|--------2-----2--2--2--2--|--------2-----2--2-----2--|--------2-----2--2--------|
    --0--0--0--0--0--0--0--0--|--0--0--0--0--0--0--0--0--|--------------------------|--------------------------|
    --------------------------|--------------------------|--4--4--4--4--4--4--4--4--|--4--4--4--4--4--4--4--4--|
    
    
    --------------------------|--------------------------|--------------------------|--------------------------|
    --------------------------|--------------------------|--------------------------|--------------------------|
    --------4-----4--4--------|--------4-----4--4--4--2--|--------4-----4--4--------|--------4-----4--4--4--2--|
    --------2-----2--2--------|--------2-----2--2--2--2--|--------2-----2--2--------|--------2-----2--2--2--2--|
    --4--4--4--4--4--4--4--4--|--2--2--2--2--2--2--2--2--|--0--0--0--0--0--0--0--0--|--0--0--0--0--0--0--0--0--|
    --------------------------|--------------------------|--------------------------|--------------------------|
    
    
    --------------------------|--------------------------|--------------------------|--------------------------|
    --------------------------|--------------------------|--------------------------|--------------------------|
    --------4-----4--2-----4--|--------4-----4--4--2--4--|--------4-----4--4-----4--|--------4-----4--4--------|
    --------2-----2--2-----2--|--------2-----2--2--2--2--|--------2-----2--2-----2--|--------2-----2--2--------|
    --0--0--0--0--0--0--0--0--|--0--0--0--0--0--0--0--0--|--------------------------|--------------------------|
    --------------------------|--------------------------|--4--4--4--4--4--4--4--4--|--4--4--4--4--4--4--4--4--|
    
    
    --------------------------|--------------------------|--------------------------|--------------------------|
    --------------------------|--------------------------|--------------------------|--------------------------|
    --------4-----4--4--------|--------4-----4--4--4--2--|--------4-----4--4--------|--------4-----4--4--4--2--|
    --------2-----2--2--------|--------2-----2--2--2--2--|--------2-----2--2--------|--------2-----2--2--2--2--|
    --4--4--4--4--4--4--4--4--|--2--2--2--2--2--2--2--2--|--0--0--0--0--0--0--0--0--|--0--0--0--0--0--0--0--0--|
    --------------------------|--------------------------|--------------------------|--------------------------|
    
    Рrй refrain
    --0--0--0--0----0--0--0--|----0----5-5-5--4--2----|--0--0--0--0----0--0--0--|----0----5-5-5--4--2----|
    --4--4--4--0----0--0--0--|----0----0-0-0--0--0----|--4--4--4--0----0--0--0--|----0----0-0-0--0--0----|
    --4--4--4--1----1--1--2--|----2----2-2-2--2--2----|--4--4--4--1----1--1--2--|----2----2-2-2--2--2----|
    --4--4--4--2----2--2--2--|----2----2-2-2--2--2----|--4--4--4--2----2--2--2--|----2----2-2-2--2--2----|
    --2--2--2--2----2--2--0--|----0----0-0-0--0--0----|--2--2--2--2----2--2--0--|----0----0-0-0--0--0----|
    -----------0----0--0-----|------------------------|-----------0----0--0-----|------------------------|
    
    
    --0--0--0--0----0--0--0--|----0----5-5-5--4--2----|--0--0--0--0----0--0--0--|------------------|
    --4--4--4--0----0--0--0--|----0----0-0-0--0--0----|--4--4--4--0----0--0--0--|------------------|
    --4--4--4--1----1--1--2--|----2----2-2-2--2--2----|--4--4--4--4----4--4--2--|------------------|
    --4--4--4--2----2--2--2--|----2----2-2-2--2--2----|--4--4--4--2----2--2--2--|------------------|
    --2--2--2--2----2--2--0--|----0----0-0-0--0--0----|--2--2--2--2----2--2--0--|------------------|
    -----------0----0--0-----|------------------------|-----------0----0--0-----|------------------|
    
    Refrain
    |---0--0--0--0----0--0--0--|----0--0--0----0--0--0--|--0--0--0--0----0--0--0--|----0--0------------------||
    |---0--0--0--0----0--0--0--|----0--0--0----0--0--0--|--0--0--0--0----0--0--0--|----0--0--4--4--4--4--4---||
    |*--2--2--2--4----4--4--6--|----6--6--2----2--2--2--|--2--2--2--4----4--4--4--|----4--4--4--4--4--4--4--*||
    |*--2--2--2--4----4--4--6--|----6--6--2----2--2--2--|--2--2--2--2----2--2--2--|----2--2--4--4--4--4--4--*||
    |---0--0--0--2----2--2--4--|----4--4--0----0--0--0--|--0--0--0--2----2--2--2--|----2--2--6--6--6--6--6---||
    |--------------------------|------------------------|-----------0----0--0--4--|----4--4------------------||
    
    
    --2--2--2--2--2--2--2--2--|--------------------------|--------------------------|---------------------|
    --4--4--4--5--4--4--4--4--|--4--4--4--4--4--4--4--4--|--2--2--2--2--2--2--0--2--|---------------------|
    --4--4--4--4--4--4--4--4--|--2--2--2--2--2--2--2--2--|--2--2--2--2--2--2--2--2--|--4-------4----------|
    --4--4--4--4--4--4--4--4--|--2--2--2--2--2--2--2--2--|--2--2--2--2--2--2--2--2--|--2----2-------------|
    --2--2--2--2--2--2--2--2--|--0--0--0--0--0--0--0--0--|--0--0--0--0--0--0--0--0--|--4------------------|
    --------------------------|--------------------------|--------------------------|---------------------|
    
    
                            Couplet
    ---------------------|--------------------------|--------------------------|--------------------------|
    ---------------------|--------------------------|--------------------------|--------------------------|
    --4-------4----------|--------4-----4--2-----4--|--------4-----4--4--2--4--|--------4-----4--4-----4--|
    --2----2-------------|--------2-----2--2-----2--|--------2-----2--2--2--2--|--------2-----2--2-----2--|
    --2------------------|--0--0--0--0--0--0--0--0--|--0--0--0--0--0--0--0--0--|--------------------------|
    ---------------------|--------------------------|--------------------------|--4--4--4--4--4--4--4--4--|
    
    
    --------------------------|--------------------------|--------------------------|--------------------------|
    --------------------------|--------------------------|--------------------------|--------------------------|
    --------4-----4--4--------|--------4-----4--4--------|--------4-----4--4--4--2--|--------4-----4--4--------|
    --------2-----2--2--------|--------2-----2--2--------|--------2-----2--2--2--2--|--------2-----2--2--------|
    --------------------------|--4--4--4--4--4--4--4--4--|--2--2--2--2--2--2--2--2--|--0--0--0--0--0--0--0--0--|
    --4--4--4--4--4--4--4--4--|--------------------------|--------------------------|--------------------------|
    
    
                                 Рrй refrain
    --------------------------|--0--0--0--0----0--0--0--|----0----5-5-5--4--2----|--0--0--0--0----0--0--0--|
    --------------------------|--4--4--4--0----0--0--0--|----0----0-0-0--0--0----|--4--4--4--0----0--0--0--|
    --------4-----4--4--4--2--|--4--4--4--1----1--1--2--|----2----2-2-2--2--2----|--4--4--4--1----1--1--2--|
    --------2-----2--2--2--2--|--4--4--4--2----2--2--2--|----2----2-2-2--2--2----|--4--4--4--2----2--2--2--|
    --0--0--0--0--0--0--0--0--|--2--2--2--2----2--2--0--|----0----0-0-0--0--0----|--2--2--2--2----2--2--0--|
    --------------------------|-----------0----0--0-----|------------------------|-----------0----0--0-----|
    
    
    ----0----5-5-5--4--2----|--0--0--0--0----0--0--0--|----0----5-5-5--4--2----|--0--0--0--0----0--0--0--|
    ----0----0-0-0--0--0----|--4--4--4--0----0--0--0--|----0----0-0-0--0--0----|--4--4--4--0----0--0--0--|
    ----2----2-2-2--2--2----|--4--4--4--1----1--1--2--|----2----2-2-2--2--2----|--4--4--4--4----4--4--2--|
    ----2----2-2-2--2--2----|--4--4--4--2----2--2--2--|----2----2-2-2--2--2----|--4--4--4--2----2--2--2--|
    ----0----0-0-0--0--0----|--2--2--2--2----2--2--0--|----0----0-0-0--0--0----|--2--2--2--2----2--2--0--|
    ------------------------|-----------0----0--0-----|------------------------|-----------0----0--0-----|
    
    
                        Refrain
    ------------------||---0--0--0--0----0--0--0--|----0--0--0----0--0--0--|--0--0--0--0----0--0--0--|
    ------------------||---0--0--0--0----0--0--0--|----0--0--0----0--0--0--|--0--0--0--0----0--0--0--|
    ------------------||*--2--2--2--4----4--4--6--|----6--6--2----2--2--2--|--2--2--2--4----4--4--4--|
    ------------------||*--2--2--2--4----4--4--6--|----6--6--2----2--2--2--|--2--2--2--2----2--2--2--|
    ------------------||---0--0--0--2----2--2--4--|----4--4--0----0--0--0--|--0--0--0--2----2--2--2--|
    ------------------||--------------------------|------------------------|-----------0----0--0--4--|
    
    
                                                            Pont
    ----0--0------------------||--2--2--2--2--2--2--2--2--|--------0-----------0-----|--------0-----------0-----|
    ----0--0--4--4--4--4--4---||--4--4--4--5--5--4--4--4--|-----4-----4-----4-----4--|-----4-----4-----4-----4--|
    ----4--4--4--4--4--4--4--*||--4--4--4--4--4--4--4--4--|--------------------------|--------------------------|
    ----2--2--4--4--4--4--4--*||--4--4--4--4--4--4--4--4--|--------------------------|--------------------------|
    ----2--2--6--6--6--6--6---||--2--2--2--2--2--2--2--2--|--0-----------------------|--------------2-----------|
    ----4--4------------------||--------------------------|--------------0-----------|--4-----------------------|
    
    
    --------0-----------0-----|--------0-----------0-----|--------0-----------0-----|--------0-----------0-----|
    -----4-----4-----4-----4--|-----4-----4-----4-----4--|-----4-----4-----4-----4--|-----4-----4-----4-----4--|
    --------------------------|--------------------------|--------------------------|--------------------------|
    --------------------------|--------------------------|--------------------------|--------------------------|
    --0-----------------------|--------------4-----------|--0-----------------------|--------------2-----------|
    --------------0-----------|--4-----------------------|--------------0-----------|--4-----------------------|
    
    
    --------0-----------0-----|--------0-----------0-----|--------0-----------0-----|--------0-----------0-----|
    -----4-----4-----4-----4--|-----4-----4-----4-----4--|-----4-----4-----4-----4--|-----4-----4-----4-----4--|
    --------------------------|--------------------------|--------------------------|--------------------------|
    --------------------------|--------------------------|--------------------------|--------------------------|
    --0-----------------------|--------------4-----------|--0-----------------------|--------------2-----------|
    --------------0-----------|--4-----------------------|--------------0-----------|--4-----------------------|
    
    
                                                                              Refrain
    --------0-----------0-----|--------0-----0--------|------------------||---0--0--0--0----0--0--0--|
    -----4-----4-----4-----4--|-----4-----4--4--------|------------------||---0--0--0--0----0--0--0--|
    --------------------------|-----------------------|------------------||*--2--2--2--4----4--4--6--|
    --------------------------|-----------------------|------------------||*--2--2--2--4----4--4--6--|
    --0-----------------------|--------------4--------|------------------||---0--0--0--2----2--2--4--|
    --------------0-----------|--4--------------------|------------------||--------------------------|
    
    
    ----0--0--0----0--0--0--|--0--0--0--0----0--0--0--|----0--0------------------||--0--0--0--0----0--0--0--|
    ----0--0--0----0--0--0--|--0--0--0--0----0--0--0--|----0--0--4--4--4--4--4---||--0--0--0--0----0--0--0--|
    ----6--6--2----2--2--2--|--2--2--2--4----4--4--4--|----4--4--4--4--4--4--4--*||--2--2--2--4----4--4--6--|
    ----6--6--2----2--2--2--|--2--2--2--2----2--2--2--|----2--2--4--4--4--4--4--*||--2--2--2--4----4--4--6--|
    ----4--4--0----0--0--0--|--0--0--0--2----2--2--2--|----2--2--6--6--6--6--6---||--0--0--0--2----2--2--4--|
    ------------------------|-----------0----0--0--4--|----4--4------------------||-------------------------|
    
    
    ----0--0--0----0--0--0--|--0--0--0--0----0--0--0--|----0--0-----------------|--0--0--0--0----0--0--0--|
    ----0--0--0----0--0--0--|--0--0--0--0----0--0--0--|----0--0--4--4--4--4--4--|--0--0--0--0----0--0--0--|
    ----6--6--2----2--2--2--|--2--2--2--4----4--4--4--|----4--4--4--4--4--4--4--|--2--2--2--4----4--4--6--|
    ----6--6--2----2--2--2--|--2--2--2--2----2--2--2--|----2--2--4--4--4--4--4--|--2--2--2--4----4--4--6--|
    ----4--4--0----0--0--0--|--0--0--0--2----2--2--2--|----2--2--6--6--6--6--6--|--0--0--0--2----2--2--4--|
    ------------------------|-----------0----0--0--4--|----4--4-----------------|-------------------------|
    
    
    ----0--0--0----0--0--0--|--0--0--0--0----0--0--0--|----0--0-----------------|--0--0--0--0----0--0--0--|
    ----0--0--0----0--0--0--|--0--0--0--0----0--0--0--|----0--0--4--4--4--4--4--|--0--0--0--0----0--0--0--|
    ----6--6--2----2--2--2--|--2--2--2--4----4--4--4--|----4--4--4--4--4--4--4--|--2--2--2--4----4--4--6--|
    ----6--6--2----2--2--2--|--2--2--2--2----2--2--2--|----2--2--4--4--4--4--4--|--2--2--2--4----4--4--6--|
    ----4--4--0----0--0--0--|--0--0--0--2----2--2--2--|----2--2--6--6--6--6--6--|--0--0--0--2----2--2--4--|
    ------------------------|-----------0----0--0--4--|----4--4-----------------|-------------------------|
    
    
    ----0--0--0----0--0--0--|--0--0--0--0----0--0--0--|--0----------------|------------------||
    ----0--0--0----0--0--0--|--0--0--0--0----0--0--0--|--0----------------|------------------||
    ----6--6--2----2--2--2--|--2--2--2--4----4--4--4--|--2----------------|------------------||
    ----6--6--2----2--2--2--|--2--2--2--2----2--2--2--|--2----------------|------------------||
    ----4--4--0----0--0--0--|--0--0--0--2----2--2--2--|--0----------------|------------------||
    ------------------------|-----------0----0--0--4--|-------------------|------------------||
    
    
    Vous pouvez voir et entendre le score complet (parties de John Shanks et Kenny Aronoff)
    sur www.mysongbook.com (mais le logiciel guitare pro est nйсеssаirе)
     

    Тональность:

    Нет текста!



    Назад
    Рекомендуем посмотреть другие песни исполнителя «Branch Michelle»:

    • Комментарии Facebook ()
    • Комментарии ВКонтакте



    Добавить в Избранное Браузера
    Сохранить здесь Очистить


    x

    0


    +
    -

    +
    -

    -

    Авторизация





    Зарегистрироваться

    M

    Дата и время

    • 10:48:26
       

    Социальные ссылки


    Наши приложения

    • Muzbank App Play Market
    • Muzbank Amazon App