MUZBANK



A Most Complete Bank Of Music Information

МУЗЫКАЛЬНО-ИНФОРМАЦИОННЫЙ БАНК

Поиск по сайту







    BBrand New • The No Seatbelt Song (аккорды и текст - chords & lyrics)


    183

    Print

    Видео «The No Seatbelt Song (Brand New)»

    Видео клипы к песне подбираются автоматически сайтом youtube. Возможны некоторые несоответствия клипов песне.

    ↑ Спрятать рекламу ↑



    Download



     into/verse
    e[----------------------------------------------------------]
    B[----------------------------------------------------------]
    G[----------------------------------------------------------]
    D[-5555555588888888-----------------------------------------]
    A[-333333336666666633333333666655558888888866666666888888885]
    E[-----------------11111111444433336666666644444444666666664]
    PM..........................................................
    
    
    chorus
    e[---------------------------------]
    B[---------------------------------]
    G[-55555555888888885555555588888888]
    D[-xxxxxxxxxxxxxxxxxxxxxxxxxxxxxxxx]
    A[-33333333666666663333333366665555]
    E[---------------------------------]
    
    pre-verse
    e[---------]
    B[---------]
    G[---------]
    D[-88888888]
    A[-88888888]
    E[-66666666]
    
    interlude
    e[--------------------------------------------]
    B[--------------------------------------------]
    G[--------------------------------------------]
    D[----------11-1-1------0--0------------------]
    A[-3313131----3-3-3---11-11--1-----1----1-----]
    E[-------------------------------44--4-4--4---]
    
    outro
    e[---------]
    B[---------]
    G[---------]
    D[-8----10-]
    A[-8----10-]
    E[-6----8--]
    
    
    
    ORDER...
    
    intro.......1x
    verse.......2x
    chorus......2x
    pre-verse...1x
    verse.......2x
    chorus......4x
    pre-verse...8x
    interlude...2x
    per-verse...1x
    chorus......6x
    outro.......1x 

    Тональность:

    Нет текста!



    Назад
    Рекомендуем посмотреть другие песни исполнителя «Brand New»:

    • Комментарии Facebook ()
    • Комментарии ВКонтакте



    Добавить в Избранное Браузера
    Сохранить здесь Очистить


    x

    0


    +
    -

    +
    -

    -

    Авторизация





    Зарегистрироваться

    M

    Дата и время

    • 20:46:37
       

    Социальные ссылки


    Наши приложения

    • Muzbank App Play Market
    • Muzbank Amazon App