MUZBANK



A Most Complete Bank Of Music Information

МУЗЫКАЛЬНО-ИНФОРМАЦИОННЫЙ БАНК

Поиск по сайту







    BBrand New • The Quiet Things That No One Ever Know (аккорды и текст - chords & lyrics)


    312

    Print

    Видео «The Quiet Things That No One Ever Know (Brand New)»

    Видео клипы к песне подбираются автоматически сайтом youtube. Возможны некоторые несоответствия клипов песне.

    ↑ Спрятать рекламу ↑



    Download



     
    
    
    This Is the Absolute Correct Way To PLay this Song
    
    INTRO:
    --3p2--3p2--3p2---3p2/5-2
    ------2---2----2---------
    -------------------------
    ----------------0--------
    -----------3-------------
    -3---0-------------------
    (play once Clean)
    
    MAIN RIFF:
    Guitar 1
    ------------------------------------------------------
    ------------------------------------------------------
    ---------------------------5555555555555-7777777777777
    -555555555555-222222222222-5555555555555-7777777777777
    -555555555555-222222222222-3333333333333-5555555555555
    -333333333333-000000000000----------------------------
    (play 2 times)
    
    MAIN RIFF:
    Guitar 2
    -----------------------------------------------------
    ------------15-----------15-----------15-----------15
    -11-12-11-12--11-12-11-12--11-12-11-12--11-12-11-12--
    -----------------------------------------------------
    -----------------------------------------------------
    -----------------------------------------------------
    (guitar 2 cont.)
    ------------15-----------------15---------------------------------------
    -12-13-12-13--12-13-12-13-12-13-------------------15------------------15
    ---------------------------------11-12-11-12-11-12---11-12-11-12-11-12--
    ------------------------------------------------------------------------
    ------------------------------------------------------------------------
    ------------------------------------------------------------------------
    
    Verse:
    -------------------------------------------------------
    -------------------------------------------------------
    -------------------------------------------------------
    --------------------33333333333-------------33333333333
    -3-3----*3333333333-55555555555-22222222222-55555555555
    -5-5--8/*5555555555-------------00000000000------------
           *palm mute
    
    Chorus: Same as Main Riff for guitar 1 and 2
    
    Verse:
    --------------------------------------------------------
    --------------------------------------------------------
    --------------------------------------------------------
    --------------------33333333333--------------33333333333
    -3-3----*3333333333-55555555555-222222222222-55555555555
    -5-5--8/*5555555555-------------000000000000------------
    
    
    BRIDGE:
    (light Distortion)
    --3p2--3p2--3p2---3p2/5-2--3p2--3p2--3p2---3p2/5-2
    ------2---2----2---------------2---2----2---------
    --------------------------------------------------
    ----------------0------------------------0--------
    -----------3------------------------3-------------
    -3---0--------------------3---0-------------------
    (play 2 times)
    
    play main riff untill the end, listen for the pause.
    The End
    Enjoy
    
    Any questions or comments email Brian @ Jellybag1@msn.com
     

    Тональность:

    Нет текста!



    Назад
    Рекомендуем посмотреть другие песни исполнителя «Brand New»:

    • Комментарии Facebook ()
    • Комментарии ВКонтакте



    Добавить в Избранное Браузера
    Сохранить здесь Очистить


    x

    0


    +
    -

    +
    -

    -

    Авторизация





    Зарегистрироваться

    M

    Дата и время

    • 10:04:12
       

    Социальные ссылки


    Наши приложения

    • Muzbank App Play Market
    • Muzbank Amazon App