MUZBANK



A Most Complete Bank Of Music Information

МУЗЫКАЛЬНО-ИНФОРМАЦИОННЫЙ БАНК

Поиск по сайту







    BBrand New • The Quiet Things That No One Ever Know (аккорды и текст - chords & lyrics)


    196

    Print

    Видео «The Quiet Things That No One Ever Know (Brand New)»

    Видео клипы к песне подбираются автоматически сайтом youtube. Возможны некоторые несоответствия клипов песне.

    ↑ Спрятать рекламу ↑



    Download



     
    
    
    email me at because419@aol.com
    Tuning:
    eb
    Bb
    Gb
    Db
    Ab
    Eb
    
    
    ----3p2-2----------3p2-2--------
    -------3--3-----------3--3------
    --------------------------------
    --------------------------------
    --------------------------------
    3--------------0----------------
    
    
    ----3p2-2----------3p2-2--3h5---
    -------3--3-----------3--3------
    --------------------------------
    --------------------------------
    3--------------5----------------
    --------------------------------
    
    x4
    ----10---
    7878--878
    ---------
    ---------
    ---------
    ---------
    
    x2
    7878-878
    ----8---
    --------
    --------
    --------
    --------
    
    x2
    ----10---
    7878--878
    ---------
    ---------
    ---------
    ---------
    
    Guitar 2
    --------------------------------
    --------------------------------
    --------------------------------
    55555555555555552222222222222222
    55555555555555552222222222222222
    33333333333333330000000000000000
    
    --------------------------------
    --------------------------------
    55555555555555557777777777777777
    55555555555555557777777777777777
    33333333333333335555555555555555
    --------------------------------
    
    --------------------------------
    --------------------------------
    --------------------------------
    55555555555555552222222222222222
    55555555555555552222222222222222
    33333333333333330000000000000000
    
    --------------------------------
    --------------------------------
    55555555555555557777777777777777
    55555555555555557777777777777777
    33333333333333335555555555555555
    --------------------------------
    
    Verse
    --------
    --------
    --------
    55------
    55------
    33--9-5-
    
    --------------------------------
    --------------------------------
    ----------------5555555555555555
    55555555555555555555555555555555
    55555555555555553333333333333333
    3333333333333333----------------
    
    --------------------------------
    --------------------------------
    ----------------5555555555555555
    22222222222222225555555555555555
    22222222222222223333333333333333
    0000000000000000----------------
    
    --------------------------------
    ----88--77--88------88--77--88--
    ----77--77--77------77--77--77--
    ----55--55--55------55--55--55--
    --------------------------------
    --------------------------------
    
    --------------------------------
    ----88--77--88------------------
    ----77--77--77------------------
    ----55--55--55------------------
    --------------------------------
    --------------------------------
    
    --------------------------------
    --------------------------------
    ----------------5555555555555555
    55555555555555555555555555555555
    55555555555555553333333333333333
    3333333333333333----------------
    
    --------------------------------
    --------------------------------
    ----------------5555555555555555
    22222222222222225555555555555555
    22222222222222223333333333333333
    0000000000000000----------------
    
    --------------------------------
    --------------------------------
    ----------------5555555555555555
    55555555555555555555555555555555
    55555555555555553333333333333333
    3333333333333333----------------
    
    --------------------------------
    --------------------------------
    ----------------5555555555555555
    22222222222222225555555555555555
    22222222222222223333333333333333
    0000000000000000----------------
    
    x4
    ----10---
    7878--878
    ---------
    ---------
    ---------
    ---------
    
    x2
    7878-878
    ----8---
    --------
    --------
    --------
    --------
    
    x2
    ----10---
    7878--878
    ---------
    ---------
    ---------
    ---------
    
    Guitar 2
    --------------------------------
    --------------------------------
    --------------------------------
    55555555555555552222222222222222
    55555555555555552222222222222222
    33333333333333330000000000000000
    
    --------------------------------
    --------------------------------
    55555555555555557777777777777777
    55555555555555557777777777777777
    33333333333333335555555555555555
    --------------------------------
    
    --------------------------------
    --------------------------------
    --------------------------------
    55555555555555552222222222222222
    55555555555555552222222222222222
    33333333333333330000000000000000
    
    --------------------------------
    --------------------------------
    55555555555555557777777777777777
    55555555555555557777777777777777
    33333333333333335555555555555555
    --------------------------------
    
    Verse
    --------
    --------
    --------
    55------
    55------
    33--9sd- (slide down)
    
    --------------------------------
    --------------------------------
    ----------------5555555555555555
    55555555555555555555555555555555
    55555555555555553333333333333333
    3333333333333333----------------
    
    --------------------------------
    --------------------------------
    ----------------5555555555555555
    22222222222222225555555555555555
    22222222222222223333333333333333
    0000000000000000----------------
    
    --------------------------------
    ----88--77--88------88--77--88--
    ----77--77--77------77--77--77--
    ----55--55--55------55--55--55--
    --------------------------------
    --------------------------------
    
    --------------------------------
    ----88--77--88------------------
    ----77--77--77------------------
    ----55--55--55------------------
    --------------------------------
    --------------------------------
    
    --------------------------------
    --------------------------------
    ----------------5555555555555555
    55555555555555555555555555555555
    55555555555555553333333333333333
    3333333333333333----------------
    
    --------------------------------
    --------------------------------
    ----------------5555555555555555
    22222222222222225555555555555555
    22222222222222223333333333333333
    0000000000000000----------------
    
    --------------------------------
    --------------------------------
    ----------------5555555555555555
    55555555555555555555555555555555
    55555555555555553333333333333333
    3333333333333333----------------
    
    --------------------------------
    --------------------------------
    ----------------5555555555555555
    22222222222222225555555555555555
    22222222222222223333333333333333
    0000000000000000----------------
    
    ----3p2-2----------3p2-2--------
    -------3--3-----------3--3------
    --------------------------------
    --------------------------------
    --------------------------------
    3--------------0----------------
    
    
    ----3p2-2----------3p2-2--3h5---
    -------3--3-----------3--3------
    --------------------------------
    --------------------------------
    3--------------5----------------
    --------------------------------
    
    --------------------------------
    --------------------------------
    --------------------------------
    5--------------2----------------
    5--------------2----------------
    3--------------0----------------
    
    --------------------------------
    --------------------------------
    5--------------7----------------
    5--------------7----------------
    3--------------5----------------
    --------------------------------
    
    ----3p2-2----------3p2-2--------
    -------3--3-----------3--3------
    --------------------------------
    --------------------------------
    --------------------------------
    3--------------0----------------
    
    
    ----3p2-2----------3p2-2--3h5---
    -------3--3-----------3--3------
    --------------------------------
    --------------------------------
    3--------------5----------------
    --------------------------------
    
    --------------------------------
    --------------------------------
    --------------------------------
    55555555555555552222222222222222
    55555555555555552222222222222222
    33333333333333330000000000000000
    ................................
    
    --------------------------------
    --------------------------------
    55555555555555557777777777777777
    55555555555555557777777777777777
    33333333333333335555555555555555
    --------------------------------
    ................................
    
    --------------------------------
    --------------------------------
    --------------------------------
    55555555555555552222222222222222
    55555555555555552222222222222222
    33333333333333330000000000000000
    ................................
    
    --------------------------------
    --------------------------------
    55555555555555557777777777777777
    55555555555555557777777777777777
    33333333333333335555555555555555
    --------------------------------
    .........................
     

    Тональность:

    Нет текста!



    Назад
    Рекомендуем посмотреть другие песни исполнителя «Brand New»:

    • Комментарии Facebook ()
    • Комментарии ВКонтакте



    Добавить в Избранное Браузера
    Сохранить здесь Очистить


    x

    0


    +
    -

    +
    -

    -

    Авторизация





    Зарегистрироваться

    M

    Дата и время

    • 07:18:26
       

    Социальные ссылки


    Наши приложения

    • Muzbank App Play Market
    • Muzbank Amazon App