MUZBANK



A Most Complete Bank Of Music Information

МУЗЫКАЛЬНО-ИНФОРМАЦИОННЫЙ БАНК

Поиск по сайту







    BBreaking Benjamin • Natural Life (аккорды и текст - chords & lyrics)


    272

    Print

    Видео «Natural Life (Breaking Benjamin)»

    Видео клипы к песне подбираются автоматически сайтом youtube. Возможны некоторые несоответствия клипов песне.

    ↑ Спрятать рекламу ↑



    Download


     
    
    
    4 String version
    
    h=hammer-on
    p=pull-off
    
    Intro
    
    Db)---------------------------------------------------|
    Ab)---------------------------------------------------|
    Db)0---0---0----0---0----0---0---0----0---0---0---0---|
    Gb)--7---9---10---7---12---9---7---10---7---7---9---5-|
    
    Breakdown
    
    Db)0-0-0-0-0-0--|
    Ab)-------------|
    Db)-------------|
    Gb)-------------|
    
    Verse
    
    Db)0-3-0---0-3--|
    Ab)------1------|
    Db)-------------|
    Gb)-------------|
    
    Chorus
    
    Db)3-3-0-3-0-7-7-0-7-0-------10-10-10-8-8-8-10-10-10--|
    Ab)--------------------8-8-8--------------------------|
    Db)---------------------------------------------------|
    Gb)---------------------------------------------------|
    
    Breakdown to interlude
    
    Db)8-8-8--------------------|
    Ab)------8-8-8-7-7-7-3-3-3--|
    Db)-------------------------|
    Gb)-------------------------|
    
    Interlude
    
    Db)10h12-12-12-10-10-0-10h12p0-10h12p0-8-8-8---------------------|
    Ab)------------------------------------------8-8-8-7-7-7-3-3-3---|
    Db)--------------------------------------------------------------|
    Gb)--------------------------------------------------------------|
     

    Тональность:

    Нет текста!



    Назад
    Рекомендуем посмотреть другие песни исполнителя «Breaking Benjamin»:

    • Комментарии Facebook ()
    • Комментарии ВКонтакте



    Добавить в Избранное Браузера
    Сохранить здесь Очистить


    x

    0


    +
    -

    +
    -

    -

    Авторизация





    Зарегистрироваться

    M

    Дата и время

    • 23:40:41
       

    Социальные ссылки


    Наши приложения

    • Muzbank App Play Market
    • Muzbank Amazon App