MUZBANK



A Most Complete Bank Of Music Information

МУЗЫКАЛЬНО-ИНФОРМАЦИОННЫЙ БАНК

Поиск по сайту







    BBreaking Benjamin • Polyamorous (аккорды и текст - chords & lyrics)


    149

    Print

    Видео «Polyamorous (Breaking Benjamin)»

    Видео клипы к песне подбираются автоматически сайтом youtube. Возможны некоторые несоответствия клипов песне.

    ↑ Спрятать рекламу ↑



    Download



     
    
    
    ^ = down pick
    * = up pick 
    Pm.. = palm mute
    h = hammer on
    
    Breaking Benjamin - Polyamorous
    
    Intro
    eb[------------------------
    Bb[------------------------
    Gb[------------------------
    Db[4-4--4-7-7--7-5-5--0-5-5 (x4)
    Ab[2-2--2-5-5--5-5-5--0-5-5
    Db[-------0-0--0-5-5--0-5-5
    
    Pre-verse
    eb[------------------
    Bb[------------------
    Gb[------------------
    Db[4-4-5544--4-4-7755 (x4)
    Ab[2-2-------2-2-----
    Db[------------------
           ^*^*      ^*^*
    
    Verse
    eb[--------------------------------------
    Bb[--------------------------------------
    Gb[--------------------------------------
    Db[----5544------5544------4455------5544
    Ab[2-2-----------------------------------
    Db[----------4-4-------5-5-------2-2-----
    Pm.......................................
    
    Chorus
    eb[-------------------
    Bb[-------------------
    Gb[-------------------
    Db[0--7--5-5-5-54-0h4 (x2)
    Ab[0--7--5-5-5-54-0h4
    Db[0--7--5-5-5-54-0h4
    
    eb[-----------------------------
    Bb[-----------------------------
    Gb[-----------------------------
    Db[0--7--5--5-5---0--4--5--54-0
    Ab[0--7--5--5-5---0--4--5--54-0
    Db[0--7--5--5-5---0--4--5--54-0
              Pm...
    
    Thats pretty much it, and I know its better than the other version.
    Any questions, my e-mail is drew_0069@hotmail.com
     

    Тональность:

    Нет текста!



    Назад
    Рекомендуем посмотреть другие песни исполнителя «Breaking Benjamin»:

    • Комментарии Facebook ()
    • Комментарии ВКонтакте



    Добавить в Избранное Браузера
    Сохранить здесь Очистить


    x

    0


    +
    -

    +
    -

    -

    Авторизация





    Зарегистрироваться

    M

    Дата и время

    • 11:49:25
       

    Социальные ссылки


    Наши приложения

    • Muzbank App Play Market
    • Muzbank Amazon App