MUZBANK



A Most Complete Bank Of Music Information

МУЗЫКАЛЬНО-ИНФОРМАЦИОННЫЙ БАНК

Поиск по сайту







    BBrides Of Destruction • Shut The Fuck Up (аккорды и текст - chords & lyrics)


    292

    Print

    Видео «Shut The Fuck Up (Brides Of Destruction)»

    Видео клипы к песне подбираются автоматически сайтом youtube. Возможны некоторые несоответствия клипов песне.

    ↑ Спрятать рекламу ↑



    Download



     Intro
    G]-----------------------------------------------------------
    D]-----------------------------------------------------------
    A]-----------------------------------------------------------
    E]-1/0-1/0-1/0-1/0-1/0-1/0-1/0-1/0-1/0-1/0-1/0-1/0-1/0-1/0-5/
    
    Verse1
    G]--------------------------------
    D]--------------------------------
    A]--------------------------------
    E]-1-1-1-1-1-1-1-1-1-1-1-1-1-1-1-3
    
    Verse2
    G]------------
    D]------------
    A]------------
    E]-1(25 Times)
    
    Chorus
    G]-------------------------------------  Play this part 3 times then the 2nd
    D]-------------------------------------  part
    A]---3---------------------------------
    E]-5--3-5-5-5-5-5-5-5-5-5-5-5-5-5-5-5-5
    
    G]------
    D]------
    A]------
    E]-5-3-5
    
    Solo
    G]--------------------
    D]--------------------
    A]--------------------
    E]-1-1-1-1-3-1-1-1-1-3
    
    G]------------
    D]------------
    A]------------
    E]-1(50 Times)
    
    G]------------------------------  Play 5 times
    D]------------------------------
    A]------------------------------
    E]-1-1-1-1-1-1-1-1-1-1-1-1-1-1-3
    
    Outro
    G]
    D]
    A]
    E]-5(14 Times)-7(14 Times)-5(14 Times)-3(9 Times)-5(5 Times)
    
    
    Intro
    Verse 1
    Verse 2
    Verse 1
    Chorus
    Verse1
    Verse2
    Verse1
    Chorus
    Solo
    Chorus
    Chorus
    Outro 

    Тональность:

    Нет текста!



    Назад
    Рекомендуем посмотреть другие песни исполнителя «Brides Of Destruction»:

    • Комментарии Facebook ()
    • Комментарии ВКонтакте



    Добавить в Избранное Браузера
    Сохранить здесь Очистить


    x

    0


    +
    -

    +
    -

    -

    Авторизация





    Зарегистрироваться

    M

    Дата и время

    • 21:39:51
       

    Социальные ссылки


    Наши приложения

    • Muzbank App Play Market
    • Muzbank Amazon App