MUZBANK



A Most Complete Bank Of Music Information

МУЗЫКАЛЬНО-ИНФОРМАЦИОННЫЙ БАНК

Поиск по сайту







    BBrown James • I Feel Good (аккорды и текст - chords & lyrics)


    527

    Print

    Видео «I Feel Good (Brown James)»

    Видео клипы к песне подбираются автоматически сайтом youtube. Возможны некоторые несоответствия клипов песне.

    ↑ Спрятать рекламу ↑



    Download


     
    
    
    I Feel Good 
    by James Brown
    from James Brown Greatest Hits Album
    Bass Line Tabbed by Adam Sorini
    
    
      VERSE BASS LINE:
        
    G----7p57p57p57----7--5----|----7p57p57p57----7--5----|---------
    D------------------------7-|------------------------7-|---------
    A-5--------------5---------|-5--------------5---------|-----------
    E--------------------------|--------------------------|-------
    
    G--------------------------|----7p57p57p57----7--5----|--------------|
    D----5p35p35p35----5--3----|------------------------7-|--------------|
    A------------------------5-|-5--------------5---------|--------------|
    E-3--------------3---------|--------------------------|---5-5---3-3--|
    
    G-------5-9-|-
    D---4-7-----|repeat once-
    A-5---------|-
    E-----------|
    
      BRIDGE BASS LINE: arranged for bass, originaly played on horns.
    
    G-----7-5--5----|----7-5--5----|-
    D---------7-7-3-|--------7-7-3-|-
    A-5-------------|-5------------|-
    E---------------|--------------|-
    
      CHORUS BASS LINE:
    
    G---------|--------|--------|--------|--------|--------|-----
    D-553322--|553322--|--------|--------|553322--|553322--|7------
    A-------55|------55|553322--|553322--|------55|------55|------
    E---------|--------|------55|------55|--------|--------|-----
    
      OUTRO BASS LINE:
    
    G-------5-9-7-5--------------------------------------------
    D---4-7---------7-5----------------------------------------
    A-5-----------------7~~~~~~~~-5~~~~~~~-------------------
    E------------------------------------------------------
     

    Тональность:

    Нет текста!



    Назад
    Рекомендуем посмотреть другие песни исполнителя «Brown James»:

    • Комментарии Facebook ()
    • Комментарии ВКонтакте



    Добавить в Избранное Браузера
    Сохранить здесь Очистить


    x

    0


    +
    -

    +
    -

    -

    Авторизация





    Зарегистрироваться

    M

    Дата и время

    • 11:08:38
       

    Социальные ссылки


    Наши приложения

    • Muzbank App Play Market
    • Muzbank Amazon App