MUZBANK



A Most Complete Bank Of Music Information

МУЗЫКАЛЬНО-ИНФОРМАЦИОННЫЙ БАНК








    BBrujeria • La Migra (аккорды и текст - chords & lyrics)


    304

    Print

    Видео «La Migra (Brujeria)»

    Видео клипы к песне подбираются автоматически сайтом youtube. Возможны некоторые несоответствия клипов песне.

    ↑ Спрятать рекламу ↑






     MAIN RIFF
    
    D |-----------------------|
    A |-----------------------|
    E |-----------------5-7-7-|
    B |-0-0-0-6-5-3-0-0-------|
    
    D |----------------------------|
    A |----------------------------|
    E |-----------------5-7-7-5-7-7|
    B |-0-0-0-6-5-3-0-0------------|
    
    CHORUS
    
    D |-----------------------|
    A |-----------------------|
    E |-----------------------|
    B |-0-0-0-0-0-0-0-0-0-0-0-| 

    Тональность:

    Нашли ошибку?



    Назад
    Рекомендуем посмотреть другие песни исполнителя «Brujeria»:

    • Комменты Fb ()
    • Комменты ВК



    Добавить в Избранное Браузера
    Сохранить здесь Очистить


    x

    0


    +
    -

    +
    -

    -

    Авторизация





    Зарегистрироваться

    M

    Дата и время

    • 15:37:17
       

    Социальные ссылки


    Наши приложения

    • Muzbank App Play Market
    • Muzbank Amazon App