MUZBANK



A MOST COMPLETE BANK OF MUSIC INFORMATION

МУЗЫКАЛЬНО-ИНФОРМАЦИОННЫЙ БАНК







    BBush • Body (аккорды и текст - chords & lyrics)


    326

    Print

    Видео «Body (Bush)»

    Видео клипы к песне подбираются автоматически сайтом youtube. Возможны некоторые несоответствия клипов песне.

    ↑ Спрятать рекламу ↑





     
    
    
    BAND: Bush
    SONG: Body
    CD: Sixteen Stone
    
    Intro:
    
    ------------------------------|
    ------------------------------|
    ------0ho2-2~~~-----0ho2-2~~~-|
    -0ho2----------0ho2-----------|
    ------------------------------|
    ------------------------------|
    
    ----------------------------------------------------|
    ----------------------------------------------------|
    ------0ho2-2-0ho2-2-2-0ho2-2------0ho2-2-0ho2-2-0---|
    -0ho2------------------------0ho2-----------------2-|
    ----------------------------------------------------|
    ----------------------------------------------------|
    
    Verses:
    
    No guitar work exept a few slides and some low toned chords.
    
    Chorus:
    
    Part 1:
    
    Play these 2 chords loosly:
    
    ------|
    ----3-|
    ----2-|
    -4--0-|
    -4--0-|
    -2----|
    
    Part 2:
    
    -------------------|
    ---------------3---|
    ---------------2-5-|
    -4-----4-----4-0-5-|
    -4-----4-----4-0-3-|
    -2-0-0-2-0-0-2-----|
    ====
     

    Тональность:

    Это должно быть в ТОП-листе! - Топ-лист композиций



    Назад
    Рекомендуем посмотреть другие песни исполнителя «Bush»:

    • Комменты Fb ()
    • Комменты ВК



    Добавить в Избранное Браузера
    Сохранить здесь Очистить


    x

    0


    +
    -

    +
    -

    -

    Авторизация





    Зарегистрироваться

    M

    Дата и время

    • 03:36:24
       

    Социальные ссылки


    Наши приложения

    • Muzbank App Play Market
    • Muzbank Amazon App