MUZBANK



A Most Complete Bank Of Music Information

МУЗЫКАЛЬНО-ИНФОРМАЦИОННЫЙ БАНК

Поиск по сайту







    BBush • Breathe In Breathe Out (аккорды и текст - chords & lyrics)


    267

    Print

    Видео «Breathe In Breathe Out (Bush)»

    Видео клипы к песне подбираются автоматически сайтом youtube. Возможны некоторые несоответствия клипов песне.

    ↑ Спрятать рекламу ↑



    Download



     
    
    
    This Is SomeWhat The Whole Song But I Can TEll U Its Better Than That
    Other Guyz Ok Lets Do This
    
    e|--------------
    b|--------------
    g|66-888-99-1111   Aight Now That x10 Then
    d|xx xxx xx x x-
    a|44-666-77-9 9-
    E|--------------
    
    e|-----------------------------------------------------
    b|-----------------------------------------------------
    g|66-xxx-6666-xx-66-xxx-6666---------------------------
    d|66-xxx-6666-xx-66-xxx-6666-77-xxx-7777-xx-77-xxx-7777 Just Do That Once 
    a|44-xxx-4444-xx-44-xxx-4444-77-xxx-7777-xx-77-xxx-7777  Just Once ;)
    E|---------------------------55-xxx-5555-xx-55-xxx-5555
    
    Thennnn Back To The First Part
    
    e|-----------------------------7h9999977777h9999977777h9999977777h99999x
    b|---------------------------------------------------------------------x
    g|66-888-99-1111-66-888-99-1111----------------------------------------x
    d|xx-xxx-xx-x-x--xx-xxx-xx-x-x-----------------------------------------x
    a|44-666-77-9-9--44-666-77-9-9-----------------------------------------x
    E|---------------------------------------------------------------------x
    
    e|--------xx-xx
    b|--------xx-xx
    g|6--6~~--xx-xx
    d|67~4~~7~xx-xx
    a|47~4~~7~xx-xx
    E|-5~---5~xx-xx
    
    e|-----------------------------------------------------
    b|-----------------------------------------------------
    g|66-xxx-6666-xx-66-xxx-6666---------------------------
    d|66-xxx-6666-xx-66-xxx-6666-77-xxx-7777-xx-77-xxx-7777  x2 This Time :D
    a|44-xxx-4444-xx-44-xxx-4444-77-xxx-7777-xx-77-xxx-7777
    E|---------------------------55-xxx-5555-xx-55-xxx-5555
    
    Theeeennn Back Again
    
    
    e|-----------------
    b|-----------------
    g|66-888-99-1111-9~   
    d|xx-xxx-xx-x-x--9~ }x4  Then The Solo Thing - A - Ma - Bob
    a|44-666-77-9-9--7~ (7-9-9 Ring Comes On Last Time Around) 
    E|-----------------
    
    e|----------------------------------------------
    b|4h55-4h55-4h55-4h55-4h55-4h55-4h55~-----------
    g|----------------------------------------------
    d|--------------------------------------4~7~4~7~
    a|--------------------------------------4~7~4~7~
    E|--------------------------------------2~5~2~5~
    
    e|-----------------------------7h9999977777h9999977777h9999977777h99999x
    b|---------------------------------------------------------------------x
    g|66-888-99-1111-66-888-99-1111----------------------------------------x
    d|xx-xxx-xx-x-x--xx-xxx-xx-x-x-----------------------------------------x
    a|44-666-77-9-9--44-666-77-9-9-----------------------------------------x
    E|---------------------------------------------------------------------x
    
    e|------7/9  Its Tricky But Hey I Mite Be Wrong.. It Sounds More Like A 
    b|---------  Major Bend But Duude thats Pretty Damn Far I Dunno Knock 
    g|6~-------  Urself Out Tryin To Find That
    d|6~7~~~~~~
    a|4~7~~~~~~
    E|--5~~~~~~
    
    e|-----------------------------------------------------
    b|-----------------------------------------------------
    g|66-xxx-6666-xx-66-xxx-6666---------------------------
    d|66-xxx-6666-xx-66-xxx-6666-77-xxx-7777-xx-77-xxx-7777  x2 Again :)
    a|44-xxx-4444-xx-44-xxx-4444-77-xxx-7777-xx-77-xxx-7777
    E|---------------------------55-xxx-5555-xx-55-xxx-5555
    
    e|-----------------------------------------------------------
    b|-----------------------------------------------------------
    g|99xxxx--------------------}(x4)-99xxxx---------------------
    d|99xxxx99xxxx1111xxxx77xxxx------99xxxx99xxxx11~-4~7~4~7~-2~
    a|77xxxx99xxxx1111xxxx77xxxx------77xxxx99xxxx11~-4~7~4~7~---
    E|------77xxxx9-9-xxxx55xxxx------------77xxxx-9~-2~5~2~5~---
    
    e|--------------------------------------------------------
    b|--------------------------------------------------------
    g|66-888-99-1111-66-888-99-1111--2h4-4/6-9-8-4-6-6/9-8-4-6
    d|xx-xxx-xx-x-x--xx-xxx-xx-x-x----------------------------
    a|44-666-77-9-9--44-666-77-9-9----------------------------
    E|--------------------------------------------------------
    
    e|--------------------------------------------------------
    b|--------------------------------------------------------
    g|99xxxx--------------------}(x4)-99xxxx------------------
    d|99xxxx99xxxx1111xxxx77xxxx------99xxxx99xxxx11~-4~7~4~7~
    a|77xxxx99xxxx1111xxxx77xxxx------77xxxx99xxxx11~-4~7~4~7~
    E|------77xxxx9-9-xxxx55xxxx------------77xxxx-9~-2~5~2~5~
    
    And Thats It Every1 The Ending There Might Be A Little More But The Song I
    Downloaded Didnt Have Everything *Sigh* Hope U Like It Its My First..! :D
    Please Rate Me:D
     

    Тональность:

    Нет текста!



    Назад
    Рекомендуем посмотреть другие песни исполнителя «Bush»:

    • Комментарии Facebook ()
    • Комментарии ВКонтакте



    Добавить в Избранное Браузера
    Сохранить здесь Очистить


    x

    0


    +
    -

    +
    -

    -

    Авторизация





    Зарегистрироваться

    M

    Дата и время

    • 03:19:00
       

    Социальные ссылки


    Наши приложения

    • Muzbank App Play Market
    • Muzbank Amazon App