MUZBANK



A Most Complete Bank Of Music Information

МУЗЫКАЛЬНО-ИНФОРМАЦИОННЫЙ БАНК

Поиск по сайту







    BBush • Machine Head (аккорды и текст - chords & lyrics)


    307

    Print

    Видео «Machine Head (Bush)»

    Видео клипы к песне подбираются автоматически сайтом youtube. Возможны некоторые несоответствия клипов песне.

    ↑ Спрятать рекламу ↑



    Download


     
    
    
    This took me awhile, I hope you all like it, its as complete as i could get it. The order is at the bottom.
    INTRO
    Guitar 1
    E|---------------------------------|
    B|---------------------------------|
    G|--7-7-7/9-9-9/10-10-10/12-12-12--|
    D|--x-x-x-x-x-x-x--x--x--x--x--x---|
    A|--5-5-5/7-7-7/8--8--8-/10-10-10--|
    D|---------------------------------|
    
    Guitar 2
    E|-----------|
    B|-----------|
    G|--7----10--|
    D|--7----10--|
    A|--5----8---|
    D|--0----8---|
    
    ============================================================================================
    PRE-VERSE
    Guitar 1
    E|---------------------------------|---------------------------------------------------|
    B|---------------------------------|--15-15-13-13-15-15-13-13-15-15-13-13-15-15-13-13--|
    G|--7-7-7/9-9-9/10-10-10/12-12-12--|--x--x--x--x--x--x--x--x--x--x--x--x--x--x--x--x---|
    D|--x-x-x-x-x-x-x--x--x--x--x--x---|--12-12-10-10-12-12-10-10-12-12-10-10-12-12-10-10--|
    A|--5-5-5/7-7-7/8--8--8-/10-10-10--|---------------------------------------------------|
    D|---------------------------------|---------------------------------------------------|
    
    Guitar 2
    E|-------------------------------------------------------------------------------------|
    B|-------------------------------------------------------------------------------------|
    G|--7-7-x-x-7-7-7-x-x-7-7-x-x-7-7-7-x-x-10-10-x-x-10-10-10-x-x-10-10-x-x-10-10-10-x-x--|
    D|--7-7-x-x-7-7-7-x-x-7-7-x-x-7-7-7-x-x-10-10-x-x-10-10-10-x-x-10-10-x-x-10-10-10-x-x--|
    A|--5-5-x-x-5-5-5-x-x-5-5-x-x-5-5-5-x-x-8--8--x-x-8--8--8--x-x-8--8--x-x-8--8--8--x-x--|
    D|--0-0-x-x-0-0-0-x-x-0-0-x-x-0-0-0-x-x-8--8--x-x-8--8--8--x-x-8--8--x-x-8--8--8--x-x--|
    
    ============================================================================================
    VERSE
    Guitar 1
    E|-------------------------------------------------------------------------------|
    B|-----------------------this-is-really-the-bass---------------------------------|
    G|-------------------------------------------------------------------------------|
    D|-------------------------------------------------------------------------------|
    A|-------------------------------------------------------------------------------|
    D|--0-12-12-12-0-12-12-12-0-12-12-12-0-12-12-12-0-8-8-8-0-8-8-8-0-8-8-8-0-8-8-8--|
    
    E|-----------------|-------------------------------------------------------------------------------|
    B|-----------------|-------------------------------------------------------------------------------|
    G|--10----7----10--|-------------------------------------------------------------------------------|
    D|--10----7----10--|-------------------------------------------------------------------------------|
    A|--8-----5----8---|--0-12-12-12-0-12-12-12-0-12-12-12-0-12-12-12-0-8-8-8-0-8-8-8-0-8-8-8-0-8-8-8--|
    D|--8-----0----8---|--0-12-12-12-0-12-12-12-0-12-12-12-0-12-12-12-0-8-8-8-0-8-8-8-0-8-8-8-0-8-8-8--|
    PM                    . .. .. .. . .. .. .. . .. .. .. . .. .. .. . . . . . . . . . . . . . . . .
    
    E|---------------------------------|
    B|---------------------------------|
    G|--7-7-7/9-9-9/10-10-10/12-12-12--|
    D|--x-x-x-x-x-x-x--x--x--x--x--x---|
    A|--5-5-5/7-7-7/8--8--8-/10-10-10--|
    D|---------------------------------|
    
    =============================================================================================
    CHORUS 1
    Guitar 1
    E|--this-is----|
    B|--the-bass---|
    G|-------------|
    D|-------------|
    A|--8-----5----|
    D|----10----8--|
    
    E|-----------|--------|
    B|-----------|--------|
    G|--9h10-10--|--9b10--|
    D|-----------|--------|
    A|-----------|--------|
    D|-----------|--------|
    
    ============================================================================================
    POST CHORUS
    Guitar 1
    E|-----------------------------------|
    B|-----------------------------------|
    G|------------------3-3-3-3-3-3-3-3--|
    D|--5-5-5-5-5-5-5-5-3-3-3-3-3-3-3-3--|
    A|--5-5-5-5-5-5-5-5-1-1-1-1-1-1-1-1--|
    D|--5-5-5-5-5-5-5-5------------------|
    
    ============================================================================================
    CHORUS 2
    Guitar 1
    E|---------------------------------------------|
    B|---------------------------------------------|
    G|--10-10-------------------7-7----------------|
    D|--10-10-x-x-x-10-10-10-10-7-7-x-x-x-8-8-8-8--|
    A|--8--8--x-x-x-10-10-10-10-5-5-x-x-x-8-8-8-8--|
    D|--------x-x-x-10-10-10-10-----x-x-x-8-8-8-8--|
    
    ============================================================================================
    BRIDGE
    Guitar 1
    E|-------|
    B|-------|
    G|--6/7--|
    D|--x----|
    A|--4/5--|
    D|--0----|
    
    E|---------------------------------|-----------------------------------------------|
    B|---------------------------------|-----------------------------------------------|
    G|--7-7-7/9-9-9/10-10-10/12-12-12--|-----10-9-10----10-9-10----10-9-10----10-9-10--|
    D|--x-x-x-x-x-x-x--x--x--x--x--x---|--12---------10---------12---------10----------|
    A|--5-5-5/7-7-7/8--8--8-/10-10-10--|-----------------------------------------------|
    D|---------------------------------|-----------------------------------------------|
    
    E|-------------------------------------------------------------------------------------|
    B|-------------------------------------------------------------------------------------|
    G|--7-7-x-x-7-7-7-x-x-7-7-x-x-7-7-7-x-x-10-10-x-x-10-10-10-x-x-10-10-x-x-10-10-10-x-x--|
    D|--7-7-x-x-7-7-7-x-x-7-7-x-x-7-7-7-x-x-10-10-x-x-10-10-10-x-x-10-10-x-x-10-10-10-x-x--|
    A|--5-5-x-x-5-5-5-x-x-5-5-x-x-5-5-5-x-x-8--8--x-x-8--8--8--x-x-8--8--x-x-8--8--8--x-x--|
    D|--0-0-x-x-0-0-0-x-x-0-0-x-x-0-0-0-x-x-8--8--x-x-8--8--8--x-x-8--8--x-x-8--8--8--x-x--|
    
    
    ORDER:
    INTRO
    PRE-VERSE
    VERSE
    CHORUS 1
    POST CHORUS
    PRE VERSE
    VERSE
    CHORUS 2
    POST CHORUS
    BRIDGE
    CHORUS
    CHORUS
     

    Тональность:

    Нет текста!



    Назад
    Рекомендуем посмотреть другие песни исполнителя «Bush»:

    • Комментарии Facebook ()
    • Комментарии ВКонтакте



    Добавить в Избранное Браузера
    Сохранить здесь Очистить


    x

    0


    +
    -

    +
    -

    -

    Авторизация





    Зарегистрироваться

    M

    Дата и время

    • 13:16:20
       

    Социальные ссылки


    Наши приложения

    • Muzbank App Play Market
    • Muzbank Amazon App