MUZBANK



A Most Complete Bank Of Music Information

МУЗЫКАЛЬНО-ИНФОРМАЦИОННЫЙ БАНК

Поиск по сайту







    BBush • Machinehead (аккорды и текст - chords & lyrics)


    265

    Print

    Видео «Machinehead (Bush)»

    Видео клипы к песне подбираются автоматически сайтом youtube. Возможны некоторые несоответствия клипов песне.

    ↑ Спрятать рекламу ↑



    Download



     
    
    
    Band:      Bush
    Song:      Machinehead
    Tabbed By: drifft
    email:     drifft@home.com
    This is a corrected tab.
    
    
    Intro:
    G:|----|----|------------------------|
    D:|----|----|------------------------|
    A:|----|-4--|-4-0--0-00--0-0--0-00-|
    E:|----|----|------------------------|
    
    Main Riff:
    G:|--------------------------------------------|
    D:|--------------------------------------------|
    A:|-4-4--4-44--4-4--4-44--0-0--0-00--0-0--0-00-|
    E:|--------------------------------------------|
    
    Chorus Variation 1:
    G:|------------|
    D:|------------|
    A:|-/7--2-4--0-|
    E:|------------|
    
    Chorus Variation 1 End:
    G:|------------|------------------|
    D:|------------|------------------|
    A:|-/7--2-4----|------------------|
    E:|------------|-2-2--5--52-2--5-|
    
    Chorus Variation 2:
    G:|-----------------------|
    D:|-----------------------|
    A:|-/7-7--2-22--4-4--0-00-|
    E:|-----------------------|
    
    Chorus Variation 2 End:
    G:|-----------------|------------------|
    D:|-----------------|------------------|
    A:|-/7-7--2-22--4---|------------------|
    E:|-----------------|-2-2--5--52-2--5-|
    
    Interlude:
    G:|--------------------------------------------|
    D:|--------------------------------------------|
    A:|-----------------------0-0--0-00--0-0--0-00-|
    E:|-1-1--1-11--1-1--1-11-----------------------|
    
    Outro:
    G:|------------------|
    D:|------------------|
    A:|-/7-7--2-22--4--4-| let last note ring
    E:|------------------|
    
    Song Breakdown:
    Intro:                  1x
    Main Riff:              8x
    Chorus Variation 1:     3x
    Chorus Variation 1 End: 1x
    Main Riff:              4x
    Chorus Variation 2:     3x
    Chorus Variation 2 End: 1x
    Interlude:              2x
    Main Riff:              1x
    Chorus Variation 2:     7x
    Outro:                  1x
    
    Listen to the song for the timing and have fun!
    Any questions or comments please email me at drifft@home.com!
     

    Тональность:

    Нет текста!



    Назад
    Рекомендуем посмотреть другие песни исполнителя «Bush»:

    • Комментарии Facebook ()
    • Комментарии ВКонтакте



    Добавить в Избранное Браузера
    Сохранить здесь Очистить


    x

    0


    +
    -

    +
    -

    -

    Авторизация





    Зарегистрироваться

    M

    Дата и время

    • 16:41:12
       

    Социальные ссылки


    Наши приложения

    • Muzbank App Play Market
    • Muzbank Amazon App