MUZBANK



A Most Complete Bank Of Music Information

МУЗЫКАЛЬНО-ИНФОРМАЦИОННЫЙ БАНК

Поиск по сайту







    BBush • Personal Holloway (аккорды и текст - chords & lyrics)


    148

    Print

    Видео «Personal Holloway (Bush)»

    Видео клипы к песне подбираются автоматически сайтом youtube. Возможны некоторые несоответствия клипов песне.

    ↑ Спрятать рекламу ↑



    Download



     
    
    
    BAND: Bush
    SONG: Personal Holloway
    CD: Razorblade Suitcase
    
    Intro/Chorus:
    
    --------------------|
    --------------------|
    -----7-7-X-5--5-7-7-|
    -7-X-7-7-X-5--5-7-7-|
    -7-X-5-5-X-3--3-5-5-|
    -5-X----------------|
    
    Verse:
    
    Everything is based on these chords:
    
    -------------|every once |-------------------|
    -------------|in a while |---------3b4--h4r3-|
    -7--5--2--3--|add this   |-------------------|
    -7--5--2--3--|after the  |-----4-------------|
    -5--3--0--1--|1st two    |---4---4-----------|
    -------------|chords     |-2-----------------|
    P.M. or use 
    harmonics w/ 
    these chords.
    
    Bridge:
    
    Bass:    Lead:
    
             |-------|
    -------| |-------|
    -------| |-9-5-7-|
    -------| |-9-5-7-|
    -7-3-5-| |-7-3-5-|
             |-------|
    
    Bass starts out, Lead jumps in and plays w/ bass then starts this:
    
    --------------------|
    --------------------|
    -5--------5---------|
    -5--------5---------|
    -3--------3---------|
    --------------------|
    play this a few times while Rhythm plays:
    
    -15-------15-------15-------|
    ----16-------16-------16----|
    -------17-------17-------17-|
    ----------------------------|
    ----------------------------|
    ----------------------------|
    ---play this a few times----
    ====
     

    Тональность:

    Нет текста!



    Назад
    Рекомендуем посмотреть другие песни исполнителя «Bush»:

    • Комментарии Facebook ()
    • Комментарии ВКонтакте



    Добавить в Избранное Браузера
    Сохранить здесь Очистить


    x

    0


    +
    -

    +
    -

    -

    Авторизация





    Зарегистрироваться

    M

    Дата и время

    • 03:20:59
       

    Социальные ссылки


    Наши приложения

    • Muzbank App Play Market
    • Muzbank Amazon App