MUZBANK



A Most Complete Bank Of Music Information

МУЗЫКАЛЬНО-ИНФОРМАЦИОННЫЙ БАНК

Поиск по сайту







    BBush • Suspicious Minds (аккорды и текст - chords & lyrics)


    206

    Print

    Видео «Suspicious Minds (Bush)»

    Видео клипы к песне подбираются автоматически сайтом youtube. Возможны некоторые несоответствия клипов песне.

    ↑ Спрятать рекламу ↑



    Download


     
    
    
    BAND: Bush/Elvis
    SONG: Suspicious Minds
    CD: Unreleased
    
    Intro:
    
    -------------------------------|
    -------------------------------|
    -7-7-X-7-7-7-X-7-7-7-----------|
    -7-7-X-7-7-7-X-7-7-7-----------|
    -5-5-X-5-5-5-X-5-5-5---0-------|
    ---------------------0---0-3b4-|
    
    Verse:
    
    Switch around with these chords:
    
    -------|
    -------|
    -7-----|
    -7--5--|
    -5--5--|
    ----3--|
    
    Chorus:
    
    Switch around with these chords:
    
    -------------|
    -------------|
    -------------|
    -7--9--4--5--|
    -7--9--4--5--|
    -5--7--2--3--|
    
    ====
     

    Тональность:

    Нет текста!



    Назад
    Рекомендуем посмотреть другие песни исполнителя «Bush»:

    • Комментарии Facebook ()
    • Комментарии ВКонтакте



    Добавить в Избранное Браузера
    Сохранить здесь Очистить


    x

    0


    +
    -

    +
    -

    -

    Авторизация





    Зарегистрироваться

    M

    Дата и время

    • 16:48:27
       

    Социальные ссылки


    Наши приложения

    • Muzbank App Play Market
    • Muzbank Amazon App