MUZBANK



A Most Complete Bank Of Music Information

МУЗЫКАЛЬНО-ИНФОРМАЦИОННЫЙ БАНК

Поиск по сайту







    BBush • Swim (аккорды и текст - chords & lyrics)


    278

    Print

    Видео «Swim (Bush)»

    Видео клипы к песне подбираются автоматически сайтом youtube. Возможны некоторые несоответствия клипов песне.

    ↑ Спрятать рекламу ↑



    Download


     
    
    
    BAND: Bush
    SONG: Swim
    CD: Sixteen Stone
    
    Intro:
    
    Rhythm Guitar:
    
    -------------------------------|
    -------------------------------|
    -7-7-7-X-X-5-5-X-X-------------|
    -7-7-7-X-X-5-5-X-X-6-6-X-X-5-5-|
    -5-5-5-X-X-3-3-X-X-6-6-X-X-5-5-|
    -------------------4-4-X-X-3-3-|
    ---------play 5 times----------
    
    Lead: (comes in after above rhythm is played 2 times)
    
    -12-12-12-X-X-10-10-X-X-6-6-X-X-5-5/-|
    -12-12-12-X-X-10-10-X-X-6-6-X-X-5-5/-|
    -------------------------------------|
    -------------------------------------|
    -------------------------------------|
    -------------------------------------|
    
    Verses:
    
    These are just blank with these two chords each time.
    
    --------------------------------------------------|
    --------------------------------------------------|
    --------------------------------------------------|
    ----------------6-5-------------------------6-5-|
    ----------------6-5-------------------------6-5-|
    ----------------4-3-------------------------4-3-|
    House is on fire.......Well maybe all we need......
    
    Chorus:
    
    -------------------|
    -------------------|
    -------------------|
    -4--X-X-X-7--X-X-X-|
    -4--X-X-X-7--X-X-X-|
    -2--X-X-X-5--X-X-X-|
    
    Bridge:
    
    I think the Bass plays something like this:
    
    ----------|
    ----------|
    ----------|
    -6--5--2--|
    
    Lead plays this after bass plays that riff:
                           (All harmonics)
    -----0-----|            |-----3-----|
    ---0-----0-|            |-3-4---4-3-|
    -3-----3---|or for the  |-----------|
    -----------|higher      |-----------|
    -----------|pitched one:|-----------|
    -----------|            |-----------|
    
    Outro:
    
    It sounds like Nigel just picked up a slide and went nuts!!
    ====
     

    Тональность:

    Нет текста!



    Назад
    Рекомендуем посмотреть другие песни исполнителя «Bush»:

    • Комментарии Facebook ()
    • Комментарии ВКонтакте



    Добавить в Избранное Браузера
    Сохранить здесь Очистить


    x

    0


    +
    -

    +
    -

    -

    Авторизация





    Зарегистрироваться

    M

    Дата и время

    • 17:41:46
       

    Социальные ссылки


    Наши приложения

    • Muzbank App Play Market
    • Muzbank Amazon App