MUZBANK



A Most Complete Bank Of Music Information

МУЗЫКАЛЬНО-ИНФОРМАЦИОННЫЙ БАНК

Поиск по сайту







    BButthole Surfers • Birds (аккорды и текст - chords & lyrics)


    268

    Print

    Видео «Birds (Butthole Surfers)»

    Видео клипы к песне подбираются автоматически сайтом youtube. Возможны некоторые несоответствия клипов песне.

    ↑ Спрятать рекламу ↑



    Download


     
    
    
    BIRDS by the Butthole Surfers (Electriclarryland) Song 1
    
    E--------------------------------|
    B--------------------------------|
    G---7b--5^7----------------5-----|
    D-----------7~~~--5-5^7~~----7~--|
    A--------------------------------|
    E--------------------------------|
    
    VERSE:
    
    E-------------------|
    B-------------------|
    G--6-6--9--9--9--9--|
    D--7-7-10-10-10-10--|
    A--7-7-10-10-10-10--|
    E--5-5--8--8--8--8--|
    
    PRE-CHORUS:
    
    E------------------------------------|
    B------------------------------------|
    G------------------------------------|
    D--7-7-7-7-7-7-7-7-7-7-7-7-10-10-10--|
    A--7-7-7-7-7-7-7-7-7-7-7-7-10-10-10--| PALM MUTE A CHORD...
    E--5-5-5-5-5-5-5-5-5-5-5-5--8--8--8--|
    
    CHORUS:
    
    E-----------------------------------|
    B-----------------------------------|
    G--7-7-7-7-7-7-7-7-5-5-5-5-5-5-5-5--|
    D--7-7-7-7-7-7-7-7-5-5-5-5-5-5-5-5--|
    A--5-5-5-5-5-5-5-5-3-3-3-3-3-3-3-3--|
    E-----------------------------------|
    
    SOLO:
    
    E------------------------------------------------------|
    B--5-8-5-8-5-8-5-5-8-5-8b~~-w/ bar --8-5-5~~ w/ bar --|
    G--/---/---/---/---------------------------------------|
    D--/---/---/---/---------------------------------------|
    A------------------------------------------------------|
    E------------------------------------------------------|
    
    E--5-8-5------------------------------------------------|
    B--/---/-8-5--------------------------------------------|
    G--/---/-----7-5-7-5-7-5-7-5----------------------------|
    D--------------/---/---------7-5------------------------|
    A--------------/---/-------------7-5-3-5-3--------------|
    E------------------------------------------5-3-5-3-5~~--|
    
    E-----------------------------------------------|
    B--5-8-5-8-5-8-5-5-8-5-8b~~-5--5-8-5-8-5--------|
    G--/---/---/---/-------------------------7-5~~--|
    D--/---/---/---/--------------------------------|
    A-----------------------------------------------|
    E-----------------------------------------------|
    
    E------------------------------------------------|
    B--5-8-5------5-5-5-8----------------------------|
    G--/-----7-5~---------5-7-5-5-7-5-7-5-7-5-7b~~~~-| w/ bar
    D--/------------------------/---/---/------------|
    A------------------------------------------------|
    E------------------------------------------------|
     

    Тональность:

    Нет текста!



    Назад
    Рекомендуем посмотреть другие песни исполнителя «Butthole Surfers»:

    • Комментарии Facebook ()
    • Комментарии ВКонтакте



    Добавить в Избранное Браузера
    Сохранить здесь Очистить


    x

    0


    +
    -

    +
    -

    -

    Авторизация





    Зарегистрироваться

    M

    Дата и время

    • 23:40:16
       

    Социальные ссылки


    Наши приложения

    • Muzbank App Play Market
    • Muzbank Amazon App