MUZBANK



A Most Complete Bank Of Music Information

МУЗЫКАЛЬНО-ИНФОРМАЦИОННЫЙ БАНК

Поиск по сайту







    ББутусов Вячеслав • Скважина (аккорды и текст - chords & lyrics)


    216

    Print

    Видео «Скважина (Бутусов Вячеслав)»

    Видео клипы к песне подбираются автоматически сайтом youtube. Возможны некоторые несоответствия клипов песне.

    ↑ Спрятать рекламу ↑



    Download



            Em7     A       D7      G       C7      D       B7      A7
    e|-------|-------|-------|-------|-------|-------|-------|-------|-------|
    H|-------|-------|-------|-----10|-------|-------|-------|-------|-------|
    G|-------|-------|-------|---02--|-------|----032|-------|-----10|-------|
    D|-------|-----0-|-------|024----|-------|-023---|-------|--013--|-------|
    A|-------|---02-4|-------|-------|-------|3------|-------|13-----|-------|
    E|-------|023----|-------|-------|-------|-------|-------|-------|-------|
    
            Em7     A       D7      G       C7      D       B7      A7      Em7
    e|-------|-------|-----02|-------|-----00|-------|-----01|-------|-----0-|
    H|-------|----032|--023--|-----10|--013--|-------|--013--|-------|--023-3|
    G|-------|--02---|02-----|---02--|02-----|----032|02-----|-----10|02-----|
    D|-------|24-----|-------|024----|-------|-023---|-------|--013--|-------|
    A|-------|-------|-------|-------|-------|3------|-------|13-----|-------|
    E|-------|-------|-------|-------|-------|-------|-------|-------|-------|
    ...
    
    Em7    A  D7                G
    Звук пилы,  очень ржавой пилы,
      C7     D     B7              A7
    Стук в дверь -   за тобой пришли
    Крюк в стене, чей-то рваный тулуп
    Эту вахту, мой друг, я посвящаю тебе...
    
       Hm      F#  A             D
      Дам Биль Вим, бесконечный путь,
       G        F# Hm         G
      Там, под ним, темнота и дым,
       C7      F#            Hm
      Будь всегда, Дам Биль Вим.
    
             Em7     A       D7      G       C7      D       B7      A7      Em7
     e|-------|-------|-----02|-------|-----00|-------|-----01|-------|-----0-|
     H|-----0-|-------|--023--|-----10|--013--|-------|--013--|-------|--023-3|
     G|------0|-------|02-----|---02--|02-----|----032|02-----|-----10|02-----|
     D|--024--|-----0-|-------|024----|-------|-023---|-------|--013--|-------|
     A|24-----|---02-4|-------|-------|-------|3------|-------|13-----|-------|
     E|-------|023----|-------|-------|-------|-------|-------|-------|-------|
     ...
    
    Круг луны, в потолке - дыра,
    За ней, мой друг, вечный свет.
    
      Ступай за ним, повторяй слова
      "Дам Биль Вим", закрывай глаза,
      Улетай, Good Bye...
    
            Em7     A       D7      G       C7      D       B7      A7
    e|-------|-------|-------|-------|-------|-------|-------|-------|-------|
    H|-----0-|-------|-------|-----10|-------|-------|-------|-------|-------|
    G|------0|-------|-------|---02--|-------|----032|-------|-----10|-------|
    D|--024--|-----0-|-------|024----|-------|-023---|-------|--013--|-------|
    A|24-----|---02-4|-------|-------|-------|3------|-------|13-----|-------|
    E|-------|023----|-------|-------|-------|-------|-------|-------|-------|
    
            Em7     A       D7      G       C7      D       B7      A7      Em7
    e|-------|-------|-----02|-------|-----00|-------|-----01|-------|-----0-|
    H|-------|----032|--023--|-----10|--013--|-------|--013--|-------|--023-3|
    G|-------|--02---|02-----|---02--|02-----|----032|02-----|-----10|02-----|
    D|-------|24-----|-------|024----|-------|-023---|-------|--013--|-------|
    A|-------|-------|-------|-------|-------|3------|-------|13-----|-------|
    E|-------|-------|-------|-------|-------|-------|-------|-------|-------|
    
    H|3-3-3-3-2-2-2-2-1-1-1-1-0-0-0-0-|
    G|-4-4-4-4-2-2-2-2-2-2-2-2-0-0-0-0|...
    
    G|3-3-3-3-2-2-2-2-1-1-1-1-0-0-0-0-|
    D|-5-5-5-5-4-4-4-4-3-3-3-3-2-2-2-2|

    Тональность:

    Нет текста!



    Назад
    Рекомендуем посмотреть другие песни исполнителя «Бутусов Вячеслав»:

    • Комментарии Facebook ()
    • Комментарии ВКонтакте



    Добавить в Избранное Браузера
    Сохранить здесь Очистить


    x

    0


    +
    -

    +
    -

    -

    Авторизация





    Зарегистрироваться

    M

    Дата и время

    • 15:05:48
       

    Социальные ссылки


    Наши приложения

    • Muzbank App Play Market
    • Muzbank Amazon App