MUZBANK



A Most Complete Bank Of Music Information

МУЗЫКАЛЬНО-ИНФОРМАЦИОННЫЙ БАНК

Поиск по сайту







    ББутусов Вячеслав • Вертолёт (аккорды и текст - chords & lyrics)


    177

    Print

    Видео «Вертолёт (Бутусов Вячеслав)»

    Видео клипы к песне подбираются автоматически сайтом youtube. Возможны некоторые несоответствия клипов песне.

    ↑ Спрятать рекламу ↑



    Download



       D             A D       C#7       F#m
     e|5424242-4242020-2424542-4+----------|
     H|------------------------2+9-6-3-0---|
     G|------------------------4+-------1--|
     D|------------------------3+--------34|
       /{Здесь типа берете аккорд
       || и переставляете мизинец ;}
    
     e|-----------------------------------------------------------------------|
     H|-----02320---02320---02320---02320----020------030-------0-------------|
     G|---22-----211-----122-----211-----1002---20---2---2----02-20-----------| [A]
     D|--------------------------------------------44------433-----3-22200----|
     A|9-----------------------------------------------------------------4422|
     E|-----------------------------------------------------------------------|
    
     e|-----------54-----------54-------------------32--------------10|
     H|-----023-------------023-------------------02------------------| [B+A]
     G|---------------------------------------2------------------02---|
     D|---------------------------------------------------------3-----|
    
    Hm7            E
    Я лечу над землей,
    Hm7        E   [A]
    Верчу головой,                        
    A7             D
    Я теперь вертолет.
    G7           A
    Выше тучи полет.
    
    e|--7-10--7-10--7---7-10-7-10-7---7-10--7-10--7---7-10-7-10-7---5-9--5-9-5
    H|10----10----10---9----9----9--10----10----10---9----9----9---8----8---8- ...
    
    e|-5-10-5-10-5---3-7-3-7-3-----------|
    H|7----7----7---6---6---6------------| [C]
    G|--------------------------999776644|
    
    Вижу сверху свой дом,
    Всем привет, всем подъем!              [A+C]
    В доме кто-то не спит,
    В доме кто-то поет:
    
    C#             F#m
    "Пой ласточка, пой.
    Пой, милая,
    C#          F#m
    Пой, не умолкай,
    Красивая!                              [D]
    C#             F#m
    Пой, ласточка, пой.
    Пой, милая,
    E     E7     Ab
    Пой, не умолкай"
    
     A|4-----(4)-------4--(4)-----4-----(4)---------|      [D]
     E|-------2------------2-------------2----0----4|
    
     H|10-9-7-9-7-5-3--9-7-5-7-5-3-2--7-5-3-9-10-9-3--6-3-0-6-3-0-2|
    
    Я лечу над землей.
    Возвращаюсь домой.
    Ты мне машешь крылом,                 
     [A]
    "Я - центральный, прием".
    
    Вижу сверху наш дом,
    Вижу свет за окном,
    Мы сидим за столом,                    
    [C+A]
    Чай пьем и поем:
    
    "Спи, звездочка, спи.
    Спи, ясная. Спи, не угасай,
    Прекрасная. Спи, звездочка спи.        
    [D]
    Спи, ясная, спи, не угасай"
    
    [B+A]
    [C]
    
    H|10-9-7-9-7-5-3--9-7-5-7-5-3-2--7-5-3-9-10-3--9-6-3-9-6-3-7|

    Тональность:

    Нет текста!



    Назад
    Рекомендуем посмотреть другие песни исполнителя «Бутусов Вячеслав»:

    • Комментарии Facebook ()
    • Комментарии ВКонтакте



    Добавить в Избранное Браузера
    Сохранить здесь Очистить


    x

    0


    +
    -

    +
    -

    -

    Авторизация





    Зарегистрироваться

    M

    Дата и время

    • 21:33:53
       

    Социальные ссылки


    Наши приложения

    • Muzbank App Play Market
    • Muzbank Amazon App