MUZBANK



A Most Complete Bank Of Music Information

МУЗЫКАЛЬНО-ИНФОРМАЦИОННЫЙ БАНК

Поиск по сайту







    CCake • Short Skirt Long Jacket2 (аккорды и текст - chords & lyrics)


    306

    Print

    Видео «Short Skirt Long Jacket2 (Cake)»

    Видео клипы к песне подбираются автоматически сайтом youtube. Возможны некоторые несоответствия клипов песне.

    ↑ Спрятать рекламу ↑



    Download


     
    
    
    Artist: Cake
    Song: Short Skirt, Long Jacket
    Transcripted By: Chris McAleenan
    -----------------------------------------------------------------
    
    Intro:
    
    Bass Tab
    
    G:----------------------------------------------|
    D:----------------------------------------------|
    A:--5-----3h5--3h5-----------3h5--3p0-----------|
    E:-------------------------------------1--3--5--|
    
    
    ------------------------------------------------------------------
    
    
    Verses:
    
          D       A     G     A    D
    e:--------------------------------|
    B:--------------------------------|
    G:----7-x-x--------------------7--|
    D:----7-x-x---7----5-5-----7---7--|Repeat Throughout Verse
    A:----5-x-x---7----5-5-----7---5--|
    E:------------5----3-3-----5------|
    
    
    -------------------------------------------------------------------
    
    Send comment to me at-  disco_stu12@hotmail.com
    
    -------------------------------------------------------------------
     

    Тональность:

    Нет текста!



    Назад
    Рекомендуем посмотреть другие песни исполнителя «Cake»:

    • Комментарии Facebook ()
    • Комментарии ВКонтакте



    Добавить в Избранное Браузера
    Сохранить здесь Очистить


    x

    0


    +
    -

    +
    -

    -

    Авторизация





    Зарегистрироваться

    M

    Дата и время

    • 18:47:25
       

    Социальные ссылки


    Наши приложения

    • Muzbank App Play Market
    • Muzbank Amazon App