MUZBANK



A Most Complete Bank Of Music Information

МУЗЫКАЛЬНО-ИНФОРМАЦИОННЫЙ БАНК

Поиск по сайту







    CCandlebox • No Sense (аккорды и текст - chords & lyrics)


    236

    Print

    Видео «No Sense (Candlebox)»

    Видео клипы к песне подбираются автоматически сайтом youtube. Возможны некоторые несоответствия клипов песне.

    ↑ Спрятать рекламу ↑



    Download


     
    
    
    Date: Thu, 23 Jan 1997 15:44:48 -0500 (EST)
    From: Jesse Anth Lomonaco 
    
    NO SENSE - Candlebox
    
    Intro
    
    G-------I-------I
    D-------I-------I
    A---5---I---3---I  Repeat 3x
    E-------I-------I
    
    Fig 1
    
    G-----------------I---------------I-----------------I----------------I
    D-----------------I---------------I-----------------I----2-3-2-------I
    A--5-0-5-0--3-----I--5-0-5-0--3---I--5-0-5-0--3-----I--5-------5-3---I
    E---------3---3---I---------3-----I---------3---3---I----------------I
    In the last measure he uses different fills each time.
    
    Repeat Fig 1 using same fill.
    
    Chorus
    
    G---------------I---------------I
    D------3---3----I------3---5----I
    A--3-5---5---3--I--3-5---5------I Repeat once
    E---------------I------------1--I
    
    Repeat Fig 1 using this fill
    
    G---------------
    D---------------
    A--5-0-5-0--3---
    E---------3-----
    
    
    Fig 2
    
    G--5/7-5------------I--5/7-5----------I
    D--------7-5-3------I--------7-5-3----I
    A--------------3----I--------------3--I  Repeat once
    E----------------3--I-----------------I
    	
    
    Chorus 3x
    
    Under guitar solo repeat Fig 1 without any fills.
    Here is that line at the end of the solo.
    
    G--5/7-5-7/9-7-9/10-9-7-----I
    D-----------------------9-7-I
    A---------------------------I
    E---------------------------I
    
    
    Fig 3
    (second guitar solo)
    G-----------------------I
    D-----------------------I
    A-----------------------I  Repeat 7x on the last time hold the 5 on the E
    E--3-1-3-1-3-5-3-5h6p5--I   string
    
    
    Play intro 4x
    
    Fig 1 with this fill
    
    G---------------I
    D------3-2------I
    A--5-0-----5-3--I
    E---------------I
    
    Play Chorus until it fades
     

    Тональность:

    Нет текста!



    Назад
    Рекомендуем посмотреть другие песни исполнителя «Candlebox»:

    • Комментарии Facebook ()
    • Комментарии ВКонтакте



    Добавить в Избранное Браузера
    Сохранить здесь Очистить


    x

    0


    +
    -

    +
    -

    -

    Авторизация





    Зарегистрироваться

    M

    Дата и время

    • 11:49:08
       

    Социальные ссылки


    Наши приложения

    • Muzbank App Play Market
    • Muzbank Amazon App