MUZBANK



A Most Complete Bank Of Music Information

МУЗЫКАЛЬНО-ИНФОРМАЦИОННЫЙ БАНК

Поиск по сайту







    CCandlebox • Step Back (аккорды и текст - chords & lyrics)


    255

    Print

    Видео «Step Back (Candlebox)»

    Видео клипы к песне подбираются автоматически сайтом youtube. Возможны некоторые несоответствия клипов песне.

    ↑ Спрятать рекламу ↑



    Download


     
    
    
    Artist Name : Candlebox
    Song Name   : Step Back
    Added By Mikhailo
    
    
    Intro: 
    
    e----------------------------------------------
    B----------------------------------------------
    G-9-7-----7-------7-------7-----7-9-9b-9b-9br7-
    D-9-7-5/9---9-5/9---9-5/9---9-9----------------
    A-7-5------------------------------------------
    E----------------------------------------------
    
    e-------------
    B-------------
    G---7-7h9-9-7-
    D-9----------- 
    A-------------
    E-------------
    
    Verse: E5 B5 A5
    
    Pre-chorus:
    
    e---------------------------------------------
    B---------------------------------------------
    G-5-5-5-5-2-2-2-2--------5-5-5-5-2-2-2-2------
    D-5-5-5-5-2-2-2-2-5-2----5-5-5-5-2-2-2-2--5-2-
    A-3-3-3-3-0-0-0-0-5-2----3-3-3-3-0-0-0-0--5-2-
    E-----------------3-0---------------------3-0-
    
    Chorus: Repeat Intro
    
    Bridge:
    
    e------------------------------------
    B------------------------------------
    G-5-5-5-5--5-5-5-5--5-5-5-5--5-5-5---
    D-5-5-5-5--5-5-5-5--5-5-5-5--5-5-5---
    A-3-3-3-3--3-3-3-3--3-3-3-3--3-3-3---
    E----------------------------------0-
    
    e---------------------
    B-7-------7---7-------
    G---7---7---7---7---7-
    D-----7-----------7---
    A---------------------
    E---------------------
     

    Тональность:

    Нет текста!



    Назад
    Рекомендуем посмотреть другие песни исполнителя «Candlebox»:

    • Комментарии Facebook ()
    • Комментарии ВКонтакте



    Добавить в Избранное Браузера
    Сохранить здесь Очистить


    x

    0


    +
    -

    +
    -

    -

    Авторизация





    Зарегистрироваться

    M

    Дата и время

    • 21:19:16
       

    Социальные ссылки


    Наши приложения

    • Muzbank App Play Market
    • Muzbank Amazon App