MUZBANK



A Most Complete Bank Of Music Information

МУЗЫКАЛЬНО-ИНФОРМАЦИОННЫЙ БАНК

Поиск по сайту







    CCandlemass • Codex Gigas (аккорды и текст - chords & lyrics)


    299

    Print

    Видео «Codex Gigas (Candlemass)»

    Видео клипы к песне подбираются автоматически сайтом youtube. Возможны некоторые несоответствия клипов песне.

    ↑ Спрятать рекламу ↑



    Download


     
    
    
    CODEX GIGAS
                                    BY CANDLEMASS
                                    FROM NIGHTFALL
                              TABBED BY TALAL DAGHESTANI
    
    
                                         
    Legend:
    -------
    . palm mute
    ~ vibrato
    
    
    eb|---------------|-------------------|
    Bb|---------------|-------------------|
    Gb|---------------|-------------------|
    Db|--2-2-5-9-8-5--|--2-2-5-9-8--3-3---| x2     GUITAR 1
    Ab|---------------|-------------------|
    Eb|---------------|-------------------|
    
    
    eb|---------------|-------------------|
    Bb|---------------|-------------------|
    Gb|---------------|-------------------|
    Db|---------------|-------------------| x2     GUITAR 2
    Ab|--2-2----------|--2-2-----~--------|
    Eb|--0-0-3-7-6-3--|--0-0-3-7-6--1-1---|
    
    
    
    eb|---------------|-------------------|
    Bb|---------------|-------------------|
    Gb|---------------|-------------------|
    Db|--9-8-5-3-2----|--9-8-5-3-2--------|        GUITAR 1
    Ab|---------------|-------------------|
    Eb|---------------|-------------------|
    
    
    
    eb|---------------|-------------------|
    Bb|---------------|-------------------|
    Gb|---------------|-------------------|
    Db|---------------|-------------------|        GUITAR 2
    Ab|---------------|-------------------|
    Eb|--7-6-3-1-0----|--7-6-3-1-0--------|
    
    
     Now repeat all of the above with another guitar doing the following riff: 
     
    
    eb|--------------------------|
    Bb|--------------------------|
    Gb|--------------------------|
    Db|--------------------------|  Do this riff over and over  
    Ab|--2-------2-------2-------|
    Eb|--0-0-0-0-0-0-0-0-0-0-0-0-|
         . . . . . . . . . . . .
    
    
    
    eb|--------------------------|
    Bb|--------------------------|
    Gb|--------------------------|
    Db|--9-8-5-9-10-9------------| x2    GUITAR 1
    Ab|--------------------------|
    Eb|--------------------------|
    
    
    eb|--------------------------|
    Bb|--------------------------|
    Gb|--4-3-0-4-5-4-------------|
    Db|--------------------------| x2    GUITAR 1
    Ab|--------------------------|
    Eb|--------------------------|
    
    
    eb|--------------------------|
    Bb|--------------------------|
    Gb|--------------------------|
    Db|--------------------------| x4     GUITAR 2
    Ab|--------------------------|
    Eb|--7-6-3-7-8-7-------------|
    
    
    
    eb|---------------|-------------------|
    Bb|---------------|-------------------|
    Gb|---------------|-------------------|
    Db|--9-8-5-3-2----|--9-8-5-3-2--------|        GUITAR 1
    Ab|---------------|-------------------|
    Eb|---------------|-------------------|
    
    
    
    eb|---------------|-------------------|
    Bb|---------------|-------------------|
    Gb|---------------|-------------------|
    Db|---------------|-------------------|        GUITAR 2
    Ab|---------------|----------2--------|
    Eb|--7-6-3-1-0----|--7-6-3-1-0--------|
    
    
    
    Talal Daghestani,   najwa@rss.gov.jo
     

    Тональность:

    Нет текста!



    Назад
    Рекомендуем посмотреть другие песни исполнителя «Candlemass»:

    • Комментарии Facebook ()
    • Комментарии ВКонтакте



    Добавить в Избранное Браузера
    Сохранить здесь Очистить


    x

    0


    +
    -

    +
    -

    -

    Авторизация





    Зарегистрироваться

    M

    Дата и время

    • 07:25:37
       

    Социальные ссылки


    Наши приложения

    • Muzbank App Play Market
    • Muzbank Amazon App