MUZBANK



A Most Complete Bank Of Music Information

МУЗЫКАЛЬНО-ИНФОРМАЦИОННЫЙ БАНК

Поиск по сайту







    CCannibal Corpse • She Was Asking For It (аккорды и текст - chords & lyrics)


    284

    Print

    Видео «She Was Asking For It (Cannibal Corpse)»

    Видео клипы к песне подбираются автоматически сайтом youtube. Возможны некоторые несоответствия клипов песне.

    ↑ Спрятать рекламу ↑



    Download



     
    
    
    She Was Asking For It
    by: Cannibal Corpse
    album: The Bleeding
    
    .=palm mute
    h=hammer on
    p=pull off
    tr - trill
    /=slide up
    =slide down
    () - ghost note(unless in trill)
    
    Tabbed by Vield   26 may 2001
    
    
    riff 1                                                           
    |----------------------------------------|
    |----------------------------------------|
    |---0-2(tr3)---0-2(tr3)---0-2(tr3)-------|
    |----------------------------------------|
    |-5----------5----------5----------5-4-3-|
    |-3----------3----------3----------3-2-1-|
      .          .  	.          . . .
    
    riff 2
    |-----------------------------------------------------------------------------------------------|
    |-----------------------------------------------------------------------------------------------|
    |-----------------------------------------------------------------------------------------------|
    |-----------------------------------------------------------------------------------------------|
    |-98---8/9---7/8---1111---98---8/9---87---55---98---8/9---7/8---1111---98---57---7/8---55-|
    |-76-0-6/7-0-5/6-0--9-9---76-0-6/7-0-65-0-33---76-0-6/7-0-5/6-0--9-9---76-0-65-0-5/6-0-33-|
          .     .     .           .     .     .           .     .     .            .     .     .
    
    riff 3
    |------------------------------------------------|
    |------------------------------------------------|
    |------------------------------------------------|
    |------------------------------------------------|
    |-8/98/9-8---7/8---7/8---8/98/9-8---7/8---118-|
    |-6/76/7-6-0-5/6-0-5/6-0-6/76/7-6-0-5/6-0--96-|
                .     .     .           .     .
    
    riff 4                        x3                    x1
    |------------------------------| |-------------------|
    |------------------------------| |-------------------|
    |------------------------------| |-------------------|
    |------------------------------| |-------------------|
    |-118---118---118---8/98/9-| |-118---118---5-8-|
    |--96-0--96-0--96-0-6/76/7-| |--96-0--96-0-3-6-|
           .      .      .                  .      .
    
    riff 4a                       x3                        x1
    |------------------------------| |-----------------------|
    |------------------------------| |-----------------------|
    |------------------------------| |-----------------------|
    |------------------------------| |-------------------6---|
    |-118---118---118---8/98/9-| |-118---118---5-8-4-8-|
    |--96-0--96-0--96-0-6/76/7-| |--96-0--96-0-3-6---6-|
           .      .      .                  .      .
    
    riff 5
    |--------------------------------------------------|
    |--------------------------------------------------|
    |--------------------------------------------------|
    |--------------------------5-----------------------|
    |-8/98/9-8---7/8---118-----7-4-7-4---7-4---5-4---|
    |-6/76/7-6-0-5/6-0--96-0-----------6-----6-----0-|
                .     .      .                       .
    
    riff 6                        x3                                        x1
    |------------------------------| |---------------------------------------| 
    |------------------------------| |---------------------------------------| 
    |------------------------------| |---------------------------------------| 
    |------------------------------| |---------------------------6---6-------| 
    |-118---118---118---8/98/9-| |-118---118---8/98/9-5-8-4-8-4-2-5-8-| 
    |--96-0--96-0--96-0-6/76/7-| |--96-0--96-0-6/76/7-3-6---6---0-3-6-| 
           .      .      .                  .      .
    
    riff 7                                                                            1_______________
    |--------------------------------------------------------------------------------------------------|
    |--------------------------------------------------------------------------------------------------|
    |--------------------------------------------------------------------------------------------------|
    |--------------------------------------------------------------------------------------------------|
    |-98---8/9---7/8------------98---8/9---87------------98---8/9---7/8------------98---8/9---5-8-|
    |-76-0-6/7-0-5/6-0-99999999-76-0-6/7-0-65-0-33333333-76-0-6/7-0-5/6-0-99999999-76-0-6/7-0-3-6-|
          .     .     .              .     .     .              .     .     .              .     .  
    
     2______________________________________________________
    |--------------------------------------------------------|
    |--------------------------------------------------------|
    |--------------------------------------------------------|
    |--------------------------------------------------------|
    |-------------------44444444--------44444444---------5-7-|
    |-0-3333333366666666--------66666666--------00000000-3-5-|
      .
    
    riff 8
    |---------------------------------------------------|
    |---------------------------------------------------|
    |-----------------------------------------------a.h-|
    |------------------------------------------------5--|
    |-87-------6/7---5/65-----------------------------|
    |-65-0-0-0-4/5-0-3/43-0-0-00002222333344443333----|
          . . .     .       . .
    
    riff 8a 
    |---------------------------------------------|
    |---------------------------------------------|
    |-----------------------------------------a.h-| 
    |------------------------------------------5--| GTRI
    |-87-------6/7---4h5p4-----------------------|
    |-65-0-0-0-4/5-0-------0-2222333344443333----|
    |     . . .     .       .
    |
    |---------------------------------------------|
    |---------------------------------------------|
    |-----------------------------------------a.h-| 
    |------------------------------------------5--| GTRI
    |-87-------6/7---7h8p7-----------------------|
    |-65-0-0-0-4/5-0-------0-2222333344443333----|
    |     . . .     .       .
    
    riff 8b
    |-------------------------------------------|
    |-------------------------------------------|
    |---------------------------------------a.h-|
    |-----------------6----------------------5--|
    |-87-------4/5---4-------------------------|
    |-65-0-0-0-2/3-0-4-0-0-0000222233334444----|
          . . .     .   . .
    
    riff 8c
    |----------------------------------------|
    |----------------------------------------|
    |----------------------------------------|
    |-----------------6----------------------|
    |-87-------5/6---4----------------------|
    |-65-0-0-0-3/4-0-4-0-0-0000222233334444-|
          . . .     .   . .
    
    riff 9                                                                            1_______________
    |--------------------------------------------------------------------------------------------------|
    |--------------------------------------------------------------------------------------------------|
    |--------------------------------------------------------------------------------------------------|
    |--------------------------------------------------------------------------------------------------|
    |-98---8/9---7/8------------98---8/9---87------------98---8/9---7/8------------98---8/9---5-8-|
    |-76-0-6/7-0-5/6-0-99999999-76-0-6/7-0-65-0-33333333-76-0-6/7-0-5/6-0-99999999-76-0-6/7-0-3-6-|
          .     .     .              .     .     .              .     .     .              .     .
    
     2__________________________________________________________________
    |--------------------------------------------------------------------|
    |--------------------------------------------------------------------|
    |--------------------------------------------------------------------|
    |--------------------------------------------------------------------|
    |-------------------44444444--------44444444-------------------------|
    |-0-3333333366666666--------66666666--------000000003333333355555555-|
      .
    
    riff 10                       x3                                                                                   x1
    |------------------------------| |----------------------------------------------------------------------------------|
    |------------------------------| |----------------------------------------------------------------------------------|
    |------------------------------| |----------------------------------------------------------------------------------|
    |------------------------------| |----------------------------------------------------------------------------------|
    |-118---118---118---8/98/9-| |-118---118-------------------44444444--------4444444477777777-----------------7-|
    |--96-0--96-0--96-0-6/76/7-| |--96-0--96-0-3333333366666666--------66666666----------------3333333355555555-5-|
           .      .      .                  .      .
    
    song order
                                                                                            
    riff 1 x 6
    riff 2 x 2
    riff 1 x 4
    riff 3 x 6
    riff 4 x 1
    riff 4a x 1
    riff 5 x 4
    riff 3 x 4
    riff 4 x 1
    riff 6 x 1
    riff 7 x 1
    riff 8 x 5
    riff 8a x 1
    riff 8 x 1
    riff 8a x 1
    riff 8b x 3
    riff 8c x 1
    riff 1 x 4
    riff 9 x 1
    riff 3 x 2
    riff 4 x 1
    riff 10 x 1
     

    Тональность:

    Нет текста!



    Назад
    Рекомендуем посмотреть другие песни исполнителя «Cannibal Corpse»:

    • Комментарии Facebook ()
    • Комментарии ВКонтакте



    Добавить в Избранное Браузера
    Сохранить здесь Очистить


    x

    0


    +
    -

    +
    -

    -

    Авторизация





    Зарегистрироваться

    M

    Дата и время

    • 07:14:11
       

    Социальные ссылки


    Наши приложения

    • Muzbank App Play Market
    • Muzbank Amazon App