MUZBANK



A Most Complete Bank Of Music Information

МУЗЫКАЛЬНО-ИНФОРМАЦИОННЫЙ БАНК

Поиск по сайту







    CCarcass • Edge Of Darkness (аккорды и текст - chords & lyrics)


    295

    Print

    Видео «Edge Of Darkness (Carcass)»

    Видео клипы к песне подбираются автоматически сайтом youtube. Возможны некоторые несоответствия клипов песне.

    ↑ Спрятать рекламу ↑



    Download


     
    
    
    Solo 1
    
    |------12-9----------------------------------------------------------------------12-17-12-------|
    |-5/(9)-----10----------------------------------------------------------------13----------13----|
    |--------------9-----------------------------------------------------------14----------------14-|
    |----------------12-11-----------------------------------------12----12-14~---------------------|
    |----------------------13-12-10--------------14-12-14-15-14-15----15----------------------------|
    |-------------------------------13-12-10-9-6~---------------------------------------------------|
    
    
    
    |-------------------------------12p9-15p10-12p9-15p10-12h15p12h15p12--------|
    |-/(10)-14p10-15p11-14p10-15p11--t----t-----t----t-------------------15-14~-|
    |--------t-----t-----t-----t------------------------------------------------|
    |---------------------------------------------------------------------------|
    |---------------------------------------------------------------------------|
    |---------------------------------------------------------------------------|
    
    
    
    |-15b(17)r-13h15p13h15p13-12-13-12----------------------------------|
    |----------------------------------15-14----------------------------|
    |----------------------------------------15-14-12-------------------|
    |-------------------------------------------------15p14h15p14-------|
    |-------------------------------------------------------------17-16-|
    |-------------------------------------------------------------------|
    
    
    
    Solo 2
    
    |------------------------------------------------------------------------|
    |---------------------------18-------18-------18-------16h17-16----16fb-|
    |-----*---------------------17-------17-------17----------------17-------|
    |-5/7~~-----------------X-X----X-X-X----X-X-X----X-X-X-------------------|
    |-------7h8p7----7---*---------------------------------------------------|
    |-------------10---8~~---------------------------------------------------|
    
    
    
    |-----------15-17-15-16p15----15------------------17-19fb-19p17p15-------------------------|
    |-/17-16-18----------------17----17-16-16fb~~-/19------------------19p18p17-17p16----20fb~~|
    |---------------------------------------------------------------------------------17-------|
    |------------------------------------------------------------------------------------------|
    |------------------------------------------------------------------------------------------|
    |------------------------------------------------------------------------------------------|
    
    
    
    Solo 3
    
    |-5/-17-15----20b(22)-20b(22)~-17-19----17----------------------------------------------|
    |----------17------------------------20----20-19-17----17-20p17----17-------------------|
    |---------------------------------------------------20----------20----20-19-17----19-17~|
    |------------------------------------------------------------------------------19-------|
    |---------------------------------------------------------------------------------------|
    |---------------------------------------------------------------------------------------|
    
    
    
    |-----------------------------------------------14h15p14----14---------------------------------|
    |-----------------------16h17p16----16-------17----------17----17-16-17--20b-19b-17b-16b-------|
    |--------------------------------18----18-15----------------------------------------------12b~~|
    |-19p17----17----------------------------------------------------------------------------------|
    |-------19----19-18-15~------------------------------------------------------------------------|
    |----------------------------------------------------------------------------------------------|
    
    
    
    
    
    
    A rising, bleak dawn
    A permanent sunset
    On the human condition
    A boot perpetually treads
    
    Illumination snuffed
    Fowards on time will march
    Holding as a mirror
    Condemning to repeat the past
    
    Endtime
    The realms of a setting sun
    Twilight
    A new age has begun
    Decline
    Decension to a new dark age
    Blank time
    An old world not quite so brave
    
    Right on the edge,
    Of a new dark age,
    Back on the edge,
    
    We stand...on the edge of darkness
    
    A fading dusk
    Empty, blanketing shade
    A dying sun
    Only blackness radiates
    
    An aeon ends
    A millenium overturned
    Time lies in embers
    As barren horizons burn
    
    End time
    The realms of a setting sun
    Twilight
    A new age has begun
    Decline
    Decension to a new dark age
    Blank time
    An old world not quite so brave
    
    Right on the edge,
    Of a new dark age,
    Back on the edge,
    
    We stand...on the edge of darkness
    
    (leads)
    
    Endtime
    The realms of a setting sun
    Twilight
    A new age has begun
    Decline
    Decension to a new dark age
    Blank time
    An old world not quite so brave
    
    Right on the edge,
    Of a new dark age,
    Back on the edge
    
    
    
    
    Intro: (2 gtrs... A5 which rings out)
    |--------------------------------------------------------|
    |---------8------7---------7---------------3-------------|
    |*---------5------5-----5---5------------0----------0---*|
    |*-7--------7------7---7-7---7--------------------0-----*|
    |--7-----------------6-----------------3-----------------|
    |--5--------------------------------------------3--------|
           ^bit may be sweep picked
    
    |--------------------------------------------|
    |-----------------------------------3--------|
    |*--------------------------------0-------0-*|
    |*-7------5h7-5-4--7-4------------------0---*|
    |--7--------------------6~~~~~--3------------|
    |--5----5-----------------------------3------|
    
    Play weird harmonics 
    |-----------------------------------------------|
    |-----------------------------------------------|
    |-----------------------------------------------|
    |-----------------------------------------------|
    |-7---3b4r3-------3b4r3--------5\4-3----2----5--|
    |-5----------2~~~-------1~~~---3\2-1--0-0--0-3--|
    
    
    |-------------------|  (Slight A.H.)
    |-------------------|
    |-------------------|
    |--------7---7b9r7--|
    |-6~~~-6---6--------|
    |-------------------|
    
    
    Verse:
    |-------------------------------------|
    |-------------------------------------|
    |-------------------------------------|
    |-------------------------------------|
    |-7------5------4--------3----2----5--|
    |-5----0-3----0-2----0-0-1--0-0--0-3--|
    
    |------------------|-----------------|------------------|----------------|
    |------------------|-----------------|------------------|----------------|
    |-2-----2---2b4r2--|------2---2b4r2--|-------2---2b4r2--|----------------|
    |-2----------------|-5---------------|-4----------------|----------------|
    |-0---0---0--------|-5---0--0--------|-4---0---0--------|-3-----2-----5--|
    |------------------|-3---------------|-2----------------|-1---0-0---0-3--|
    
    
    Chorus:  (other gtr. harmonise in 3rds last couple of times, in A dorian)
    |-------------------|----------------------|
    |-------------------|----------------------|
    |-------------------|----------------------|
    |-7---7-5---5h7p5---|-5-4h5p4---4-7h9p7----|
    |-7-------7-------7-|---------5---------9--|
    |-5-----------------|----------------------|
     

    Тональность:

    Нет текста!



    Назад
    Рекомендуем посмотреть другие песни исполнителя «Carcass»:

    • Комментарии Facebook ()
    • Комментарии ВКонтакте



    Добавить в Избранное Браузера
    Сохранить здесь Очистить


    x

    0


    +
    -

    +
    -

    -

    Авторизация





    Зарегистрироваться

    M

    Дата и время

    • 07:01:25
       

    Социальные ссылки


    Наши приложения

    • Muzbank App Play Market
    • Muzbank Amazon App