MUZBANK



A Most Complete Bank Of Music Information

МУЗЫКАЛЬНО-ИНФОРМАЦИОННЫЙ БАНК

Поиск по сайту







    CCarcass • Ever Increasing Circles (аккорды и текст - chords & lyrics)


    322

    Print

    Видео «Ever Increasing Circles (Carcass)»

    Видео клипы к песне подбираются автоматически сайтом youtube. Возможны некоторые несоответствия клипов песне.

    ↑ Спрятать рекламу ↑



    Download


     
    
    
    join the death/black metal tab mailing list by emailing 
            
    
                              Ever Increasing Circles tabs
    
    Ever Increasing Circles
    (Tune down 2.5 steps to B)
    Intro chords are E5 D5 B5  (x79xxx, x57xxx, x24xxx).
    Hungarian minor scale:
    |-------------------------------|------------------------------|
    |-------------------------------|------------------------------|
    |-------------------------------|------------------------------|
    |----2p1---1~~-2p1-----1--------|------------------------------|
    |--------3---------3~~---3-2----|---3p2---2~~-2p1-----1--------|
    |-0--------------------------00-|-0-----0---------3~~---3-2-00-|
     
    
    
    Round and round we go,
    Like a merry-go-round out of control
    The same old tune, same old song
    Again, again, and again
    
    Round and round we go,
    When will it stop, nobody knows
    The same old chords, the same old words
    It all sounds familiar, all starts to sound the same
    
    Turn on, tune in, drop out,
    Out of tune, dropped in, turned off
    Who calls the tune?
    
    Round and round we go,
    Ever get the feeling you've heard this before?
    Same old melody, rejuvenated,
    Recycled again and again
    
    Round and round, we go,
    Never able to stem the flow
    Same old notes, going round in cycles
    Over and over again, and over again...
    
    Turn on, tune in, drop out,
    Out of tune, dropped in, turned off
    Who calls the tune?
    
    Who plays the fool?
    As the circles ever increase
    
    Round and round we go,
    Like a merry-go-round out of control
    The same old tune, the same old song,
    Again, again, and again
    
    Round and round we go,
    Ever get the feeling you've heard this before?
    Same old melody, rejuvenated,
    Recycled again and again, again and again...
    
    Turn on, tune in, drop out,
    Out of tune, dropped in, turned off
    
    Turn on, tune in, drop out,
    Out of tune, dropped in, turned off
    Who calls the tune?
    Who plays the fool?
    
    Who calls the tune?
    As the circles ever increase
    
    
    
    Tune Down 2.5 steps to B
    
     Intro
    |---------------|
    |---------------|GTRS
    |---------------|1&2
    |--9----7----4--|
    |--7----5----2--|
    |---------------|
    
     Riff 1
    |---------------------------------------------------------------|
    |---------------------------------------------------------------|GTRS
    |---------------------------------------------------------------|1&2
    |-------2p1---1--2p1-----1--------------------------------------|
    |-----------3---------3~~---3-2-------3p2---2---2p1-----1-------|
    |-00-0--------------------------00--0-----3---------3~~---3-2---|
      ..                            ..        .
    
    |---------------------------------------------------------------|
    |---------------------------------------------------------------|GTRS
    |---------------------------------------------------------------|1&2
    |-------2p1---1---2p1-----1-------------------------------------|
    |-----------3---------3~~---3-2-------3p2---2---2p1---5555-4444-|
    |-00-0--------------------------00--0-----3-----------3333-2222-|
      ..                            ..        .           .... ....
    
     RIFF 2       PLAY 3 TIMES
    |-----------------------------------------------------------------|
    |-----------------------------------------------------------------|GTRS
    |-----------------------------------------------------------------|1&2
    |------------6\5-----4/5---------------------6/8-----6\5----------|
    |----5/6-----4\3-----2/3-----8\7-----5/5-----4/6-----4\3-----8\7--|
    |-0--3/4--0-------0-------0--6\5--0--3/4--0-------0-------0--6\5--|
      .       .       .       .       .       .       .       .
    
    |-----------------------------------------------------------------|
    |-----------------------------------------------------------------|GTRS
    |-----------------------------------------------------------------|1&2
    |------------6\5-----4/5---------------------6\5-----4--5--3--2---|
    |----5/6-----4\3-----2/3-----8\7-----5/6-----4\3-----2--3--1--0---|
    |-0--3/4--0-------0-------0--6\5--0--3/4--0-------0---------------|
      .       .       .       .       .       .       .
    
     RIFF 3
    |------------------------------------------------------------------------|
    |------------------------------------------------------------------------|GTRS
    |------------------------------------------------------------------------|1&2
    |---------4-----------------------------------------------------4--------|
    |-5\2---2-2------------5\4-----------3~---2-3-2---------5\2---2-2--------|
    |-3\0-0-0-------19\----3\2-0-3-2-0-2------------3-2-0---3\0-0-0-----19\--|
          .                    . . . . .      . . . . . .       .
    
    |------------------------|
    |------------------------|GTRS
    |------------------------|1&2
    |---------------5--------|
    |-5\4-----------3--3-2-0-|
    |-3\2-0-3-2-0-2----------|
          . . . . .
    
     PLAY RIFF 2  3 TIMES
     PLAY RIFF 3  1 TIME
    
     RIFF 1a
    |------------------------------------------------------------|
    |------------------------------------------------------------|GTRS
    |------------------------------------------------------------|1&2
    |----2p1---1---2p1-----1-------------------------------------|
    |--------3---------3~~---3-2-------3p2---2---2p1-----1-------|
    |-0--------------------------00--0-----3---------3-----3-2---|
                                 ..        .
    
    |---------------------------------------------------------------|
    |---------------------------------------------------------------|GTRS
    |----------------------------------------------------------a.h.-|1&2
    |-------2p1---1---2p1-----1--------------------------------2~~--|
    |-----------3---------3~~---3-2-------3p2---2---2p1-----1-------|
    |-00-0--------------------------00--0-----3---------3-----3-----|
      ..                            ..        .
    
     RIFF 4   PLAY 6 TIMES
    |-----------------------------------------|
    |-----------------------------------------|GTRS
    |-----------------------------------------|1&2
    |------7----2h3p2p0------------6h7p6p0----|
    |-2----5-------------2----6---------------|
    |-0-00---00----------0-00-4-00------------|
        ..   ..            ..   ..
    
     RIFF 5   PLAY 4 TIMES
    |-----------------------------------------------------|
    |-----------------------------------------------------|GTRS
    |-------0------------0-------------0---------0--------|1&2
    |----4-----4------4-------------4-----4------------4--|
    |-7------------5--------2--(2)------------3-----5-----|
    |-----------------------------------------------------|
    
     PLAY RIFF 4  4 TIMES
     PLAY RIFF 5  3 TIMES
    
    |--------------------------------------------|
    |--------------------------------------------|GTRS
    |--------------------------------------------|1&2
    |--9----7----4----444444444444---------------|
    |--7----5----2----222222222222---------------|
    |------------------------------0--/14\-------|
                      ............ .
    
     PLAY RIFF 2  3 TIMES
     PLAY RIFF 3  2 TIMES
     PLAY RIFF 1a 1 TIME
    
    |------------------------------------------------------------|
    |------------------------------------------------------------|GTR
    |------------------------------------------------------------| 1
    |----2p1---1---2p1-----1-------------------------------------|
    |--------3---------3~~---3-2-------3p2---2---2p1-----1-------|
    |-0--------------------------00--0-----3---------3-----3-2---|
    |                            ..                              |
    |                                                            |
    |------------------------------------------------------------|
    |------------------------------------------------------------|GTR
    |----4P3---3--4P3------3P0-----------------------------------| 2
    |--------5--------5~~------4-------5P4---4---4P3-----3-------|
    |--------------------------------------5---------5-----5-4---|
    |-0---------------------------00-0---------------------------|
                                  ..
    
    |------------------------------------------------------------|
    |------------------------------------------------------------|GTR
    |------------------------------------------------------------| 1
    |----2p1---1---2p1-----1----------------------------7-7-7-9--|
    |--------3---------3~~---3-2-------3p2---2---2p1-5--5-5-5-7--|
    |-0--------------------------00--0-----3---------3-----------|
    |                            ..                     . . .    |
    |                                                            |
    |------------------------------------------------------------|
    |------------------------------------------------------------|GTR
    |----4P3---3--4P3------3P0-----------------------------------| 2
    |--------5--------5~~------4-------5P4---4---4P3----7-7-7-9--|
    |--------------------------------------5---------5--5-5-5-7--|
    |-0---------------------------00-0---------------3-----------|
                                  ..        
    

    Тональность:

    Нет текста!



    Назад
    Рекомендуем посмотреть другие песни исполнителя «Carcass»:

    • Комментарии Facebook ()
    • Комментарии ВКонтакте



    Добавить в Избранное Браузера
    Сохранить здесь Очистить


    x

    0


    +
    -

    +
    -

    -

    Авторизация





    Зарегистрироваться

    M

    Дата и время

    • 01:25:30
       

    Социальные ссылки


    Наши приложения

    • Muzbank App Play Market
    • Muzbank Amazon App