MUZBANK



A Most Complete Bank Of Music Information

МУЗЫКАЛЬНО-ИНФОРМАЦИОННЫЙ БАНК

Поиск по сайту







    CCarcass • Reek Of Putrefaction (аккорды и текст - chords & lyrics)


    405

    Print

    Видео «Reek Of Putrefaction (Carcass)»

    Видео клипы к песне подбираются автоматически сайтом youtube. Возможны некоторые несоответствия клипов песне.

    ↑ Спрятать рекламу ↑



    Download


    join the death/black metal tab  
            
    
                                Reek of Putrefaction tabs
    
    Reek of Putrefaction intro
    (Tune down 2.5 steps to B)
    
    Thanks to Royce for sending a corrected version of this.
    ------------------------
    ------------------------
    ------------------------
    -----2-----------2------   (play twice)
    -4---0-4-2---4---0-4-2--
    -2-----2-0---2-----2-0--
    
    ---------------------------------------------------------------
    ---------------------------------------------------------------
    ---------------------------------------------------------------
    ------------------------6--5------------------------7----4-3---
    -3--2--5--4------/7--6--4--3-----3h4p3----4----4-4--5--5-2-1---
    -1--0--3--2------/5--4----------------5-4-2----2-2-----3-------
    
    
    
    Snorting the stench of latent effluvium
    And maturing damp fumes
    This foul menage forces tears to your eyes
    As the corpse's gas are exhumed....
    Intoxicated by foul body odours
    And the nauseating tepid whiff
    Pinching your nostrils as you irrigate flatus
    From the emaciated stiff...
    
    Volatile entrails fume and steam
    As they're meticulously hacked during discission
    Evaporating sludge and bubbling pus -
    A rotten gaseous expiration...
    
    Maturating corpse, the stale smell of decay and rot
    - A sickening asphyxiation
    Gross remains gush, innards turn to sludge
    - With partial liquefaction...
    
    Smell the rot...
    Of the corrupted corpse....
    Hallucinogenic trip...
    
    Tissue gases leak - a warm, unpleasant reek
    A quite macabre addiction
    Deteriorated, bloated corpse - decomposure burning hot
    Sniff the smell of carrion...
    
    [Solo: Cadaveric resin]
    
    Inhaling the dank smells
    As you gouge out the dripping innards with glee
    Succumbling to a translucid state
    As you sniff the aroma of necropsy...
    Bacterial decomposition
    The aroma of fungal/larval infestation
    Consuming, ripening slime
    As the cadaver is slowly wasting...
    
    Your sore sinews rot, blood curdling coughs
    As acrid foetor corrodes your lungs
    Body orifices clenched in your teeth
    As you frenziedly try to insert the bungs...
    
    Swollen, ripened corpse, the stench of crusting clots
    - The smell of stale perspiration
    Administering watery gore, you're screaming out for more
    - Addicted to putrefaction....
    
    Snort the corpse...
    Get high on the rot...
    Orgasmic rush...
    Turns your brains to pus...
    
     
    
    
    4/4                                    3/4
     Fig. 1
      E(E)E E E E(E)E   E E Q   E(E)E E E   E(E)E E Q
    |-----------------|-------------------|-------------|
    |-----------------|-------------------|-------------|
    |-----------------|-------------------|-------------|
    |-----------------|-------------------|-------------|
    |-4---4-3-2-4---4-|-4-3-2---4---4-3-2-|-4---4-3-2---|
    |-2---2-1-0-2---2-|-2-1-0---2---2-1-0-|-2---2-1-0---|
    
    
     bpm = 160
    
    4/4
     Fig. 2
     (W)    (W)    (W)    (W)    (W)    (W)    (W)
    |------|------|------|------|------|------|------|
    |------|------|------|------|------|------|------|
    |------|------|------|------|------|------|------|
    |------|------|------|------|------|------|------|
    |------|------|------|------|------|------|------|
    |------|------|------|------|------|------|------|
    
    
     (Q) Q   Q   Q
    |----------------|
    |----------------|
    |----------------|
    |----------------|
    |----3---2---5---|
    |----1---0---3---|
    
    
     Fig. 3
        W       +Q    Q   Q   Q     W
    |---------|-------------------|------|
    |-o-------|-------------------|------|
    |---------|-------------------|------|
    |---------|---------------6---|------|
    |-o-4-----|-(4)---7---6---4---|-3tr4-|
    |---2-----|-(2)---5---4-------|------|
    
    
      +H         E E E E   W       H     Q   Q     W
    |--------------------|-------|---------------|-------|
    |--------------------|-------|---------------|-------|
    |--------------------|-------|---------------|-------|
    |--------------------|-------|-7-------------|-------|
    |-(3tr4)-----3-4-----|-4-----|-5-----5---8---|-7-----|
    |----------------5-4-|-2-----|-------3---6---|-5-----|
    pm           ' ' ' '
    
      +Q   Q   Q   Q
    |--------------------|
    |------------------o-| x3
    |--------------------|
    |--------------------|
    |-(7)--3---2---5---o-|
    |-(5)--1---0---3-----|
    
    
     bpm = 210
    
    4/4                                    3/4
     Fig. 4
      E(E)E E E E(E)E   E E Q   E(E)E E E   E(E)E E Q
    |-----------------|-------------------|-------------|
    |-----------------|-------------------|-------------|
    |-----------------|-------------------|-------------|
    |-----------------|-------------------|-------------|
    |-4---4-3-2-4---4-|-4-3-2---4---4-3-2-|-4---4-3-2---|
    |-2---2-1-0-2---2-|-2-1-0---2---2-1-0-|-2---2-1-0---|
    
    
      Verse:
    
    4/4
     Fig. 1
        S S S S S S S S S S S S S S S S   S S S S S S S S S S S S S S S S
    |-----------------------------------|---------------------------------|
    |-o---------------------------------|---------------------------------|
    |-----------------------------------|---------------------------------|
    |-----------------------------------|---------------------------------|
    |-o---------------------------------|---------------------------------|
    |---2-2-2-2-2-2-2-2-2-2-2-2-2-1-1-0-|-2-2-2-2-2-2-2-2-2-2-2-2-2-1-1-0-|
    pm' ' ' ' ' ' ' ' ' ' ' ' ' ' ' '   ' ' ' ' ' ' ' ' ' ' ' ' ' ' ' '
    
    
     S S S S S S S S S S S S S S S S    S S S S S S S S E  E  Q
    |---------------------------------|-----------------------------|
    |---------------------------------|---------------------------o-|
    |---------------------------------|-----------------------------|
    |---------------------------------|-----------------------------|
    |---------------------------------|-----------------4--3--2---o-|
    |-2-2-2-2-2-2-2-2-2-2-2-2-2-1-1-0-|-2-2-2-2-2-2-2-2-2--1--0-----|
    pm' ' ' ' ' ' ' ' ' ' ' ' ' ' ' '   ' ' ' ' ' ' ' '
    
    
     Fig. 2
        E  Q   E  E  Q   E    E  Q   E  E  E  Q
    |-----------------------|-----------------------|
    |-o---------------------|---------------------o-| x4
    |-----------------------|-----------------------|
    |-----------------------|-----------4-----------|
    |-o-4--4---4--4--4---4--|-2--2---2--2--4--5---o-|
    |---2--2---2--2--2---2--|-0--0---0-----2--3-----|
    
    
     Fig. 3
        S S S S S S S S S S S S S S S S   S S S S S S S S S S S S S S S S
    |-----------------------------------|-----------------------------------|
    |-o---------------------------------|---------------------------------o-| x4
    |-----------------------------------|-----------------------------------|
    |-----------------------------------|-----------------------------------|
    |-o---------------------------------|-2-2-2-2-2-2-2-2-----------------o-|
    |---5-5-5-5-5-5-5-5-1-1-1-1-1-1-1-1-|-----------------3-3-3-3-3-3-3-3---|
    pm' ' ' ' ' ' ' ' ' ' ' ' ' ' ' '   ' ' ' ' ' ' ' ' ' ' ' ' ' ' ' '
    
    
      Pre Chorus:
    
        S S S S S S S S Q   Q     S S S S S S S S Q   Q
    |---------------------------|-------------------------|
    |-o-------------------------|-------------------------|
    |---------------------------|-------------------------|
    |-------------------3-------|-----------------3-------|
    |-o-4-4-4-4-4-4-4-4-1---3---|-4-4-4-4-4-4-4-4-1---3---|
    |---2-2-2-2-2-2-2-2-----1---|-2-2-2-2-2-2-2-2-----1---|
    pm  ' ' ' ' ' ' ' '           ' ' ' ' ' ' ' '
    
    
      S S S S S S S S Q   Q     S S S S S S S S Q   Q
    |-------------------------|---------------------------|
    |-------------------------|-------------------------o-| x4
    |-------------------------|---------------------------|
    |-----------------5-------|-----------------3---------|
    |-6-6-6-6-6-6-6-6-3---5---|-4-4-4-4-4-4-4-4-1---3---o-|
    |-4-4-4-4-4-4-4-4-----3---|-2-2-2-2-2-2-2-2-----1-----|
    pm' ' ' ' ' ' ' '           ' ' ' ' ' ' ' '
    
    
      Chorus:
    
      S S S S S S S S S S S S S S S S   S S S S S S S S S S S S S S S S
    |-----------------------------------|---------------------------------|
    |-o---------------------------------|---------------------------------|
    |-----------------------------------|---------------------------------|
    |-----------------------------------|---------------------------------|
    |-o---------------------------------|-------------------------4-4-4-4-|
    |---2-2-2-2-2-2-2-2-2-2-2-2-2-2-2-2-|-2-2-2-2-5-5-5-5-4-4-4-4---------|
    pm  ' ' ' ' ' ' ' ' ' ' ' ' ' ' ' '   ' ' ' ' ' ' ' ' ' ' ' ' ' ' ' '
    
    
      S S S S S S S S S S S S S S S S   S S S S S S S S E  E  E  E
    |---------------------------------|-----------------------------|
    |---------------------------------|-----------------------------|
    |---------------------------------|-----------------------------|
    |---------------------------------|-----------------------------|
    |-3-4-3-4-3-4-3-4-3-4-3-4-3-4-3-4-|-3-4-3-4-3-4-3-4-3--4--------|
    |---------------------------------|-----------------------5--4--|
    pm                                                  '  '  '  '
    
    
      S S S S S S S S S S S S S S S S   S S S S S S S S S S S S S S S S
    |---------------------------------|---------------------------------|
    |---------------------------------|---------------------------------|
    |---------------------------------|---------------------------------|
    |---------------------------------|---------------------------------|
    |---------------------------------|-5-5-5-5-5-5-5-5-----------------|
    |-2-2-2-2-2-2-2-2-2-2-2-2-2-2-2-2-|-----------------3-3-3-3-6-6-6-6-|
    pm' ' ' ' ' ' ' ' ' ' ' ' ' ' ' '   ' ' ' ' ' ' ' ' ' ' ' ' ' ' ' '
    
    
      S S S S S S S S S S S S S S S S   S S S S Q   Q   Q
    |---------------------------------|-----------------------|
    |---------------------------------|---------------------o-|
    |---------------------------------|-----------------------|
    |---------------------------------|-----------------------|
    |---------------------------------|---------3---2---5---o-|
    |-5-5-5-5-5-5-5-5-5-5-5-5-5-5-5-5-|-5-5-5-5-1---0---3-----|
    pm' ' ' ' ' ' ' ' ' ' ' ' ' ' ' '   ' ' ' '
    
    
      Break:
    
     bpm = 190
    
       S S S S S S S S S S S S S S S S   S S S S S S S S S S S S S S S S
    |-----------------------------------|-----------------------------------|
    |-o---------------------------------|---------------------------------o-| x6
    |-----------------------------------|-----------------------------------|
    |-----------------------------------|-----------------------------------|
    |-o---------------------------------|-2-2-2-2-2-2-2-2-----------------o-|
    |---5-5-5-5-5-5-5-5-1-1-1-1-1-1-1-1-|-----------------3-3-3-3-3-3-3-3---|
    pm' ' ' ' ' ' ' ' ' ' ' ' ' ' ' '   ' ' ' ' ' ' ' ' ' ' ' ' ' ' ' '
    
    
      Solo:   Cadaveric Resin by W.G. Steer
    
    
      E  H   +Q.      +Q   Q    E   E   Q     W               +H   E   E   E   E
    |-17p14--------|-(14)-17---16--14-------|--------------|-----------------------|
    |--------------|-------------------14---|-13v----------|-(13v)-13--14----------|
    |--------------|------------------------|--------------|---------------14--13--|
    |--------------|------------------------|--------------|-----------------------|
    |--------------|------------------------|--------------|-----------------------|
    |--------------|------------------------|--------------|-----------------------|
    
    
      W              H      Q    Q      W             +Q    Q   Q    Q
    |--------------|------------------|------------|---------------------|
    |--------------|-15---------------|------------|---------------------|
    |-11-----------|--------12---16---|-15---------|-(15)-\10---9---12---|
    |--------------|------------------|------------|---------------------|
    |--------------|------------------|------------|---------------------|
    |--------------|------------------|------------|---------------------|
    
      W               +Q   Q    E   E   Q
    |--------------|------17---16--14-------|
    |--------------|-------------------14---|
    |-11-----------|-(11)-------------------|
    |--------------|------------------------|
    |--------------|------------------------|
    |--------------|------------------------|
    
       W              +H    E   E   E   E
    |--------------|-----------------------|
    |-13v----------|-(13v)-13--14----------|
    |--------------|---------------14--13--|
    |--------------|-----------------------|
    |--------------|-----------------------|
    |--------------|-----------------------|
    
       W              H      Q    Q      W            +H        +H
    |--------------|------------------|------------|---------------------|
    |--------------|-15---------------|------------|---------------------|
    |-11-----------|--------12---16---|-15---------|-(15)------(15)\-----|
    |--------------|------------------|------------|---------------------|
    |--------------|------------------|------------|---------------------|
    |--------------|------------------|------------|---------------------|
    
    (Solo backing = Intro Fig. 3)
    
    
     Then Repeat - Intro Fig 4
                   Verse
                   Pre Chorus
                   Chorus
    
      Outro:
    
    4/4                                    3/4           4/4
      E(E)E E E E(E)E   E E Q   E(E)E E E   E(E)E E Q     E  (H..)
    |-----------------|-------------------|-------------|----------|
    |-----------------|-------------------|-------------|----------|
    |-----------------|-------------------|-------------|----------|
    |-----------------|-------------------|-------------|----------|
    |-4---4-3-2-4---4-|-4-3-2---4---4-3-2-|-4---4-3-2---|-4--------|
    |-2---2-1-0-2---2-|-2-1-0---2---2-1-0-|-2---2-1-0---|-2--------|
    

    Тональность:

    Нет текста!



    Назад
    Рекомендуем посмотреть другие песни исполнителя «Carcass»:

    • Комментарии Facebook ()
    • Комментарии ВКонтакте



    Добавить в Избранное Браузера
    Сохранить здесь Очистить


    x

    0


    +
    -

    +
    -

    -

    Авторизация





    Зарегистрироваться

    M

    Дата и время

    • 13:10:37
       

    Социальные ссылки


    Наши приложения

    • Muzbank App Play Market
    • Muzbank Amazon App