MUZBANK



A Most Complete Bank Of Music Information

МУЗЫКАЛЬНО-ИНФОРМАЦИОННЫЙ БАНК

Поиск по сайту







    CCasualties • Brainwashed (аккорды и текст - chords & lyrics)


    194

    Print

    Видео «Brainwashed (Casualties)»

    Видео клипы к песне подбираются автоматически сайтом youtube. Возможны некоторые несоответствия клипов песне.

    ↑ Спрятать рекламу ↑



    Download


     
    
    
    THE CASUALTIES-BRAINWASHED
    Tabbed By Ben H (PunkAsPhuck)
    
    intro 
    e|-----| 
    B|---7-| 
    G|-----| 
    D|-9---| 
    A|-9---| 
    E|-7---| 
    
    verse 
    e|---------------------| 
    B|---------------------| 
    G|-----11-7-11-9-7-7-7-| 
    D|-9-9-11-7-11-9-7-7-7-| 
    A|-9-9--9-5--9-7-5-5-5-| 
    E|-7-7-----------------| 
    
    chorus 
    e|-------------------------| 
    B|-------------------------| 
    G|-------------------------| 
    D|-9-9-9-5-5-5-4-4-4-7-7-7-| 
    A|-9-9-9-5-5-5-4-4-4-7-7-7-| 
    E|-7-7-7-3-3-3-2-2-2-5-5-5-| 
    
    bridge 
    e|------------------------------| 
    B|------------------------------| 
    G|-----11-11-7-7--11-11-9-9-7-7-| 
    D|-9-9-11-11-7-7--11-11-9-9-7-7-| 
    A|-9-9--9--9-5-5---9--9-7-7-5-5-| 
    E|-7-7--------------------------| 
    
    end 
    e|----------------| 
    B|----------------| 
    G|-7-5-7-9-7-9-11-| 
    D|-7-5-7-9-7-9-11-| 
    A|-5-3-5-7-5-7--9-| 
    E|----------------|
     

    Тональность:

    Нет текста!



    Назад
    Рекомендуем посмотреть другие песни исполнителя «Casualties»:

    • Комментарии Facebook ()
    • Комментарии ВКонтакте



    Добавить в Избранное Браузера
    Сохранить здесь Очистить


    x

    0


    +
    -

    +
    -

    -

    Авторизация





    Зарегистрироваться

    M

    Дата и время

    • 19:39:15
       

    Социальные ссылки


    Наши приложения

    • Muzbank App Play Market
    • Muzbank Amazon App