MUZBANK



A Most Complete Bank Of Music Information

МУЗЫКАЛЬНО-ИНФОРМАЦИОННЫЙ БАНК

Поиск по сайту







    CCasualties • Fuck You All (аккорды и текст - chords & lyrics)


    251

    Print

    Видео «Fuck You All (Casualties)»

    Видео клипы к песне подбираются автоматически сайтом youtube. Возможны некоторые несоответствия клипов песне.

    ↑ Спрятать рекламу ↑



    Download


     
    
    
    Ok this is a very easy song to do. There are only four chords through out the
    song. And it is very fun to play, me and my band play this song and it rocks.
    
     standard tuning
     
    intro: prt.1
    e-------------------------------------------
    B-------------11-----------------------9----
    G---8------11----11--------10--------9---9--
    D-9---9----11-------11--11----11-----9-----9 
    A-9-----9---9-----------11-------11--7------
    E-7----------------------9------------------
    
    e-------------------------------------------------------------------------
    B-------------------11-11--------------------------------------9-9--------
    G---8-8----------11-------11-11-----------10-10--------------9-----9-9----
    D-9-----9-9------11-------------11-11--11-------11-11--------9---------9-9
    A-9---------9-9---9--------------------11-------------11-11--7------------
    E-7-------------------------------------9---------------------------------
    
    
    intro: prt.2
    e------------------------------------------------------------------
    B------------------------------------------------------------------
    G------------------11----------------------------------------------
    D-9----------------11-11-11-11-11-11-11-11--11---------------------
    A-9-9-9-9-9-9-9-9---9--9--9--9--9--9--9--9--11-11-11-11-11-11-11-11
    E-7-7-7-7-7-7-7-7----------------------------9--9--9--9--9--9--9--9  
        P.M._________      P.M._______________      P.M._______________
    
    e----------------
    B----------------
    G-9--------------
    D-9-9-9-9-9-9-9-9
    A-7-7-7-7-7-7-7-7
    E----------------
        P.M._________
    
    
    intro: prt.3
    e---------------------------
    B---------------------------
    G------11x11---------9x9x9x9
    D-9x9--11x11--11x11--9x9x9x9
    A-9x9---9x-9--11x11--7x7x7x7
    E-7x7----------9x-9---------
    
    
    intro: prt.4 / verse:
    e-----------------------------------------------
    B-----------------------------------------------
    G----------11-11-11-11---------------11-11-11-11
    D-9-9-9-9--11-11-11-11--11-11-11-11--11-11-11-11
    A-9-9-9-9---9--9--9--9--11-11-11-11---9--9--9--9
    E-7-7-7-7----------------9--9--9--9-------------
    
    
    chorus:
    e-------------------------------------------
    B-------------------------------------------
    G-9-9-9-9------------------------11-11-11-11
    D-9-9-9-9--9-9-9-9--11-11-11-11--11-11-11-11
    A-7-7-7-7--9-9-9-9--11-11-11-11---9--9--9--9
    E----------7-7-7-7---9--9--9--9-------------
    
    
    end of chorus:
    e-------------
    B-------------
    G-11--9-------
    D-11--9--11--9
    A--9--7--11--9
    E---------9--7
    
    
    bridge: (palm mute with up/down strokes)
    e------------------------------------------------------------------
    B------------------------------------------------------------------
    G------------------11----------------------------------------------
    D-9----------------11-11-11-11-11-11-11-11--11---------------------
    A-9-9-9-9-9-9-9-9---9--9--9--9--9--9--9--9--11-11-11-11-11-11-11-11
    E-7-7-7-7-7-7-7-7----------------------------9--9--9--9--9--9--9--9
        P.M._________     P.M._______________       P.M._______________
    
    e------------------------
    B------------------------
    G-11---------------------
    D-11-11-11-11-11-11-11-11
    A--9--9--9--9--9--9--9--9
    E------------------------
          P.M._______________
    
    
    Thats it. The arangment of the song is on the bottom of the page. HAVE FUN!!!
    
    
    
    intro: prt.1    
    intro: prt.2    2x
    intro: prt.3
    intro: prt.4    2x
    verse:          4x
    chorus:         4x
    end of chorus:  
    verse:          4x
    chorus:         4x
    end of chorus:  
    verse:          4x
    chorus:         4x
    end of chorus:  3x
    bridge:         2x
    verse:          4x
    chorus:         4x
    end of chorus:  3x
     

    Тональность:

    Нет текста!



    Назад
    Рекомендуем посмотреть другие песни исполнителя «Casualties»:

    • Комментарии Facebook ()
    • Комментарии ВКонтакте



    Добавить в Избранное Браузера
    Сохранить здесь Очистить


    x

    0


    +
    -

    +
    -

    -

    Авторизация





    Зарегистрироваться

    M

    Дата и время

    • 12:55:10
       

    Социальные ссылки


    Наши приложения

    • Muzbank App Play Market
    • Muzbank Amazon App