MUZBANK



A Most Complete Bank Of Music Information

МУЗЫКАЛЬНО-ИНФОРМАЦИОННЫЙ БАНК

Поиск по сайту







    CCasualties • Leaders Of Today (аккорды и текст - chords & lyrics)


    178

    Print

    Видео «Leaders Of Today (Casualties)»

    Видео клипы к песне подбираются автоматически сайтом youtube. Возможны некоторые несоответствия клипов песне.

    ↑ Спрятать рекламу ↑



    Download


     
    
    
    THE CASUALTIES-LEADERS OF TODAY
    Tabbed by Ben H (PunkAsPhuck)
    
    intro/bridge/outro 
    e|-------------| 
    B|-------------| 
    G|--9--7-------| 
    D|--9--7--7--2-| 
    A|--7--5--7--2-| 
    E|--------5--0-| 
    
    verse 
    e|---------------| 
    B|---------------| 
    G|-9-9-9-7-----9-| 
    D|-9-9-9-7-7-5-9-| 
    A|-7-7-7-5-7-5-7-| 
    E|---------5-3---| 
    
    chorus 
    e|-------------------------------------------------------| 
    B|-------------------------------------------------------| 
    G|-9-9-9-------12-9-9-12-9-9--9-9-9-------9-9-9-12-12-12-| 
    D|-9-9-9-9-9-9-12-9-9-12-9-9--9-9-9-9-9-9-9-9-9-12-12-12-| 
    A|-7-7-7-9-9-9-10-7-7-10-7-7--7-7-7-9-9-9-7-7-7-10-10-10-| 
    E|-------7-7-7----------------------7-7-7----------------| 
    
    interlude 
    e|----------------------| 
    B|----------------------| 
    G|-14-14-14-12-------14-| 
    D|-14-14-14-12-12-10-14-| 
    A|-12-12-12-10-12-10-12-| 
    E|-------------10--8----|
     

    Тональность:

    Нет текста!



    Назад
    Рекомендуем посмотреть другие песни исполнителя «Casualties»:

    • Комментарии Facebook ()
    • Комментарии ВКонтакте



    Добавить в Избранное Браузера
    Сохранить здесь Очистить


    x

    0


    +
    -

    +
    -

    -

    Авторизация





    Зарегистрироваться

    M

    Дата и время

    • 07:00:53
       

    Социальные ссылки


    Наши приложения

    • Muzbank App Play Market
    • Muzbank Amazon App