MUZBANK



A Most Complete Bank Of Music Information

МУЗЫКАЛЬНО-ИНФОРМАЦИОННЫЙ БАНК

Поиск по сайту







    CCasualties • Media Control (аккорды и текст - chords & lyrics)


    280

    Print

    Видео «Media Control (Casualties)»

    Видео клипы к песне подбираются автоматически сайтом youtube. Возможны некоторые несоответствия клипов песне.

    ↑ Спрятать рекламу ↑



    Download


     
    
    
    THE CASUALTIES-MEDIA CONTROL
    Tabbed By Ben H (PunkAsPhuck)
    
    intro 
    e|--------------| 
    B|--------------| 
    G|--------------| 
    D|-9-9--4-4-5-5-| 
    A|-9-9--4-4-5-5-| 
    E|-7-7--2-2-3-3-| 
    
    verse 
    e|-------------| 
    B|-------------| 
    G|-------9-7-7-| 
    D|-9-9-9-9-7-7-| 
    A|-9-9-9-7-5-5-| 
    E|-7-7-7-------| 
    
    verse
    e|-------------------------| 
    B|-------------------------| 
    G|-------------9-9-9-9-9-9-| 
    D|-7-7-7-5-5-5-9-9-9-9-9-9-| 
    A|-7-7-7-5-5-5-7-7-7-7-7-7-| 
    E|-5-5-5-3-3-3-------------| 
    
    chorus 
    e|-------------------------| 
    B|-------------------------| 
    G|-------------------------| 
    D|-9-9-9-9-9-9-4-4-4-5-5-5-| 
    A|-9-9-9-9-9-9-4-4-4-5-5-5-| 
    E|-7-7-7-7-7-7-2-2-2-3-3-3-| 
    
    ending
    e|--------------------------------------------------------| 
    B|--------------------------------------------------------| 
    G|-14-14-14-----------------------------9-9-9-------------| 
    D|-14-14-14-14-14-14-9-9-9-9-9-9--7-7-7-9-9-9-9-9-9-9-9-9-| 
    A|-12-12-12-14-14-14-9-9-9-9-9-9--7-7-7-7-7-7-9-9-9-9-9-9-| 
    E|----------12-12-12-7-7-7-7-7-7--5-5-5-------7-7-7-7-7-7-|
     

    Тональность:

    Нет текста!



    Назад
    Рекомендуем посмотреть другие песни исполнителя «Casualties»:

    • Комментарии Facebook ()
    • Комментарии ВКонтакте



    Добавить в Избранное Браузера
    Сохранить здесь Очистить


    x

    0


    +
    -

    +
    -

    -

    Авторизация





    Зарегистрироваться

    M

    Дата и время

    • 15:05:45
       

    Социальные ссылки


    Наши приложения

    • Muzbank App Play Market
    • Muzbank Amazon App