MUZBANK



A Most Complete Bank Of Music Information

МУЗЫКАЛЬНО-ИНФОРМАЦИОННЫЙ БАНК

Поиск по сайту







    CCasualties • Nightmare (аккорды и текст - chords & lyrics)


    271

    Print

    Видео «Nightmare (Casualties)»

    Видео клипы к песне подбираются автоматически сайтом youtube. Возможны некоторые несоответствия клипов песне.

    ↑ Спрятать рекламу ↑



    Download



     
    
    
    standard tuning
    
    intro
    
    ----------------------------------
    ----------------------------------
    -7-5---7-10-10-7-5---12-10--------
    -7-5-7-7-10-10-7-5-7-12-10--------
    -5-3-7-5-8--8--5-3-7-10-8---------
    -----5-------------5--------------
    
    intro 2
    
    ------------------
    ------------------
    -5/777------------
    -5/777------------
    -3/555------------
    ------------------
    
    verse
    
    -------------------------------------------------
    -------------------------------------------------
    -7777-5---7777-10-10-7777-5---12121212-10--------
    -7777-5-7-7777-10-10-5555-5-7-12121212-10--------
    -5555-3-7-5555-8--8--5555-3-7-10101010-8---------
    --------5-------------------5--------------------
    
    chorus
    
    -------------------------------------------------
    -------------------------------------------------
    ----1010--7--------------1010--12----------------
    -7--1010--7---[x3]----7--1010--12----------------
    -7--8-8---5-----------7--8-8---10----------------
    -5--------------------5--------------------------
    
    solo
    
    -----------------------------------------------------------
    -----------------------------------------------------------
    --5-3---3-5-3---3-5-3---3-5b-----------------------3-------
    ------5-------5-------5------3-0-3-0-3-0-3-0-3-0-3---3-5b--
    -----------------------------------------------------------
    -----------------------------------------------------------
    
    -----------------------------------------------------------
    -xxxx----------5-5-7-7-------------------------------------
    -xxxx--5-5-7-7---------7-5---------------------------------
    -xxxx----------------------5-3-0---------------------------
    -xxxx------------------------------------------------------
    -----------------------------------------------------------
    
    
    outro
    -------------------------------------------------
    -------------------------------------------------
    ----1010--7--------------1010--12----------------
    -7--1010--7---[x7]----7--1010--12----------------
    -7--8-8---5-----------7--8-8---10----------------
    -5--------------------5--------------------------
    
    order
    intro x2
    intro2 x8
    verse x4
    intro2 x4
    chorus x1
    verse x4
    intro2 x4
    chorus x1
    verse x4
    intro2 x4
    chorus x2
    intro x1
    solo
    verse x2
    intro x4
    outro x1
    
    thats the whole thing..peace and unity
     

    Тональность:

    Нет текста!



    Назад
    Рекомендуем посмотреть другие песни исполнителя «Casualties»:

    • Комментарии Facebook ()
    • Комментарии ВКонтакте



    Добавить в Избранное Браузера
    Сохранить здесь Очистить


    x

    0


    +
    -

    +
    -

    -

    Авторизация





    Зарегистрироваться

    M

    Дата и время

    • 09:21:09
       

    Социальные ссылки


    Наши приложения

    • Muzbank App Play Market
    • Muzbank Amazon App