MUZBANK



A Most Complete Bank Of Music Information

МУЗЫКАЛЬНО-ИНФОРМАЦИОННЫЙ БАНК

Поиск по сайту







    CCasualties • On The Frontline (аккорды и текст - chords & lyrics)


    231

    Print

    Видео «On The Frontline (Casualties)»

    Видео клипы к песне подбираются автоматически сайтом youtube. Возможны некоторые несоответствия клипов песне.

    ↑ Спрятать рекламу ↑



    Download


     
    
    
    THE CASUALTIES-ON THE FRONTLINE
    Tabbed By Ben H (PunkAsPhuck)
    
    verse 
    e|------------------------| 
    B|------------------------| 
    G|-9-9-9-9-9-9-7-12-9-9-9-| 
    D|-9-9-9-9-9-9-7-12-9-9-9-| 
    A|-7-7-7-7-7-7-5-10-7-7-7-| 
    E|------------------------| 
    
    chorus 
    e|---------------------| 
    B|---------------------| 
    G|-------------9-7-9-9-| 
    D|-5-5-5-9-9-9-9-7-9-9-| 
    A|-5-5-5-9-9-9-7-5-7-7-| 
    E|-3-3-3-7-7-7---------| 
    
    e|--------------------------------| 
    B|--------------------------------| 
    G|-5-5-5-5-4-4-7-7-5-5--4-5-7-5-4-| 
    D|-5-5-5-5-4-4-7-7-5-5------------| 
    A|-3-3-3-3-2-2-5-5-3-3------------| 
    E|--------------------------------| 
    
    bridge
    e|---------------| 
    B|---------------| 
    G|-----------7-9-| 
    D|-9-9-9-8-7-7-9-| 
    A|-9-9-9-8-7-5-7-| 
    E|-7-7-7-6-5-----|
     

    Тональность:

    Нет текста!



    Назад
    Рекомендуем посмотреть другие песни исполнителя «Casualties»:

    • Комментарии Facebook ()
    • Комментарии ВКонтакте



    Добавить в Избранное Браузера
    Сохранить здесь Очистить


    x

    0


    +
    -

    +
    -

    -

    Авторизация





    Зарегистрироваться

    M

    Дата и время

    • 14:45:54
       

    Социальные ссылки


    Наши приложения

    • Muzbank App Play Market
    • Muzbank Amazon App