MUZBANK



A Most Complete Bank Of Music Information

МУЗЫКАЛЬНО-ИНФОРМАЦИОННЫЙ БАНК

Поиск по сайту







    CCasualties • Scarred For Life (аккорды и текст - chords & lyrics)


    192

    Print

    Видео «Scarred For Life (Casualties)»

    Видео клипы к песне подбираются автоматически сайтом youtube. Возможны некоторые несоответствия клипов песне.

    ↑ Спрятать рекламу ↑



    Download


     
    
    
    THE CASUALTIES-SCARRED FOR LIFE
    Tabbed By Ben H (PunkAsPhuck)
    
    intro/verse 
    e|-------------------------------------------| 
    B|-------------------------------------------| 
    G|---------------------------------7-7-7-8-7-| 
    D|-7-7-7-7-9-10-10-9-10-10-7-7-7-7-7-7-7-8-7-| 
    A|-7-7-7-7-9-10-10-9-10-10-7-7-7-7-5-5-5-6-5-| 
    E|-5-5-5-5-7--8--8-7--8--8-5-5-5-5-----------| 
    
    chorus 
    e|-------------------------------------| 
    B|-------------------------------------| 
    G|-7-5--------7-5--------9-9-8-8-------| 
    D|-7-5-7-7-7--7-5-7-7-7--9-9-8-8-7-7-7-| 
    A|-5-3-7-7-7--5-3-7-7-7--7-7-6-6-7-7-7-| 
    E|-----5-5-5------5-5-5----------5-5-5-| 
    
    bridge 
    e|----------------------------------------------------------------------| 
    B|----------------------------------------------------------------------| 
    G|-5-5-4-4-5-5-4-4-5-5-4-4-3-3-----5-5-4-4-5-5-4-4-5-5-4-4--8-8-8-7-7-7-| 
    D|-5-5-4-4-5-5-4-4-5-5-4-4-3-3-5-5-5-5-4-4-5-5-4-4-5-5-4-4--8-8-8-7-7-7-| 
    A|-3-3-2-2-3-3-2-2-3-3-2-2-1-1-5-5-3-3-2-2-3-3-2-2-3-3-2-2--6-6-6-5-5-5-| 
    E|-----------------------------3-3--------------------------------------| 
    
    Outro
    e|----------------------------------------------| 
    B|----------------------------------------------| 
    G|-------9-9-9-------9-9-9-------9-9-9--7--5----| 
    D|-9-9-9-9-9-9-9-9-9-9-9-9-9-9-9-9-9-9--7--5--7-| 
    A|-9-9-9-7-7-7-9-9-9-7-7-7-9-9-9-7-7-7--5--3--7-| 
    E|-7-7-7-------7-7-7-------7-7-7--------------5-|
     

    Тональность:

    Нет текста!



    Назад
    Рекомендуем посмотреть другие песни исполнителя «Casualties»:

    • Комментарии Facebook ()
    • Комментарии ВКонтакте



    Добавить в Избранное Браузера
    Сохранить здесь Очистить


    x

    0


    +
    -

    +
    -

    -

    Авторизация





    Зарегистрироваться

    M

    Дата и время

    • 22:53:08
       

    Социальные ссылки


    Наши приложения

    • Muzbank App Play Market
    • Muzbank Amazon App