MUZBANK



A Most Complete Bank Of Music Information

МУЗЫКАЛЬНО-ИНФОРМАЦИОННЫЙ БАНК

Поиск по сайту







    ЧЧайФ • Пусть тебе приснится (аккорды и текст - chords & lyrics)


    467

    Print

    Видео «Пусть тебе приснится (ЧайФ)»

    Видео клипы к песне подбираются автоматически сайтом youtube. Возможны некоторые несоответствия клипов песне.

    ↑ Спрятать рекламу ↑



    Download



    Вступление:
    (            1            )(                  2
    E|--4-----2-----0---------|------------------------------------|
    H|5---5^3---3^2---2--0-2-0|------------------------------------|
    G|------------------------|-----------------------4-2----------|
    D|------------------------|------2------------2-0-----4-------2|
    A|------------------------|0-0^4--------2-00^4----------0-0^4--|
    E|------------------------|--------0-0-4-----------------------|
                 )
    E|-----------|
    H|-----------|
    G|-----------|
    D|-----------|
    A|-------2---|
    E|-0-0-4--2--|
                             (1)                              (2)
    E|------------------|------------|-------------------|---------|
    H|--2--2------------|------------|----2--2-----2--2--|---------|
    G|--2--2---2-----1--|------------|----2--2-----2--2--|---------|
    D|----------0-----2-|------------|-------------------|---------|
    A|------------------|------------|-------------------|---------|
    E|------------------|------------|-------------------|---------|
    
    A            E
      Сделай так,  чтобы это случилось
    A               D
      Иначе зачем я   надеюсь, зачем
    A             E
      И если тебе   это тоже приснилось
       F#                    D     E
      Подай мне сигнал, а затем
    A                 E
      Ночь на природе,  и станет темно
    A                             D
      И тени от лунного света начнут спектакль про любовь
            A                  E
      И тогда попробуй сказать,  что тебе все равно
                F#                      D               E
      Тогда попробуй сказать, что этот танец не греет кровь
    
               A              E         A              D
              Пусть тебе приснятся реки,  в реках чистая вода
            A            E             F#           D    E
              Эти сны у нас отнять никто не сможет никогда
               A              E    A           D
              Пусть тебе приснится   чистая вода
            A            E             F#           D    E
              Эти сны у нас отнять никто не сможет никогда
    
    Знаешь, мы оба все понимаем, это смешно
    И что у нас есть, кроме любви и огня
    Но если ветер, то жив и огонь, а значит станет тепло
    А утром, быть может, кто-то будет сильнее меня
    
    Он взрывоопасен, этот сон, где я встречу тебя
    Я - спичка в руках ребенка, будь осторожна с открытым огнем
    Но если все это над белою тканью поднимет тебя и меня
    Что делать - природа всегда права, о том и поем
    
    Пусть тебе приснятся реки,  в реках чистая вода
    Эти сны у нас отнять никто не сможет никогда
    Пусть тебе приснится чистая вода
    Эти сны у нас отнять никто не сможет никогда
    2 раза.
    
      A   E   A   D
      A   E   F# D/E
    

    Тональность:

    Нет текста!



    Назад
    Рекомендуем посмотреть другие песни исполнителя «ЧайФ»:

    • Комментарии Facebook ()
    • Комментарии ВКонтакте



    Добавить в Избранное Браузера
    Сохранить здесь Очистить


    x

    0


    +
    -

    +
    -

    -

    Авторизация





    Зарегистрироваться

    M

    Дата и время

    • 22:49:26
       

    Социальные ссылки


    Наши приложения

    • Muzbank App Play Market
    • Muzbank Amazon App