MUZBANK



A Most Complete Bank Of Music Information

МУЗЫКАЛЬНО-ИНФОРМАЦИОННЫЙ БАНК

Поиск по сайту







    ЧЧайФ • У взморья (аккорды и текст - chords & lyrics)


    453

    Print

    Видео «У взморья (ЧайФ)»

    Видео клипы к песне подбираются автоматически сайтом youtube. Возможны некоторые несоответствия клипов песне.

    ↑ Спрятать рекламу ↑



    Download



    Intro:
    
    2nd Guitar
    E|--3---3---3---3---3---3---3---3---2---2---2--2---3---3---5---5
    B|5---5---5---5---5---5---5---5---4---4---4---4--5---5---7---7--
    G|--------------------------------------------------------------
    D|--------------------------------------------------------------
    A|--------------------------------------------------------------
    E|--------------------------------------------------------------
    
       Em       H7   Em          H7        Em          H7
    E|--------|-^7-|--------|-^7-----^7|-12-12-12-12|-^7-----------|
    B|-^12----|----|-^12----|----^12---|------------|----12-12-10-8|
    G|-----^12|----|-----^12|----------|------------|--------------|
    D|--------|----|--------|----------|------------|--------------|
    A|--------|----|--------|----------|------------|--------------|
    E|--------|----|--------|----------|------------|--------------|
    
    Em           H7
    ------------|--------
    -12---------|--------        *Примечание: ^ - флажолет
    --9-11h12p11|-9-7----                     h - hammer
    ------------|-----9--                     p - pool
    ------------|--------
    ------------|--------
    
    Bass for intro:
    
      Em   H7          Em    H7     Em   H7         Em   H7
    G|----|-----------|-----|------|----|----------|----|----------|
    D|----|-----------|-----|------|----|----------|----|----------|
    A|----|-2-2---0h2-|-----|-2-0--|----|-2-2---0h2|----|-2---2----|
    E|-0-3|-----3-----|-0-3-|-----3|-0-3|-----3----|-0-3|----------|
    
    Coda:
    2nd Guitar
    
      Em        H7
    E-3-3-2-3|-5-5-3-2-3-----|
    B-5-5-4-5|-7-7-5-4-5-----|
    G--------|---------------|
    D--------|---------------|
    A--------|---------------|
    E--------|---------------|
    
    Em              H7
    Я купил в ларьке "Советскую культуру",
        Em            H7
    Я три дня не называл тебя дурой.
    A       H7            Em    H7
    У-у, наверно, я стал лучше.
    
    Я наконец пробрил свою морду.
    Разучил два новых заковыристых аккорда.
    У-у, наверно, я стал круче.
    
    Вместо детских снов - грязные обрывки.
    По утрам я здесь ел взбитые сливки.
    У-у, наверно, я стал сытым.
    
    Вчера я поздно лег, сегодня поздно встал.
    Я начал быстро уставать когда слушаю металл.
    У-у, наверно, я стал старше.
    
    Я слышал, как шумят фруктовые сады.
    Я две недели подряд лежу у воды.
    У-у, наверно, я стал чище.
    
    У-у, неужто, я стал лучше.
    У-у, неужто, я стал старше.
    У-у, неужто, я стал круче.
    У-у, неужто, я стал сытым.
    У-у, неужто, я встал.
    

    Тональность:

    Нет текста!



    Назад
    Рекомендуем посмотреть другие песни исполнителя «ЧайФ»:

    • Комментарии Facebook ()
    • Комментарии ВКонтакте



    Добавить в Избранное Браузера
    Сохранить здесь Очистить


    x

    0


    +
    -

    +
    -

    -

    Авторизация





    Зарегистрироваться

    M

    Дата и время

    • 10:04:24
       

    Социальные ссылки


    Наши приложения

    • Muzbank App Play Market
    • Muzbank Amazon App