MUZBANK



A Most Complete Bank Of Music Information

МУЗЫКАЛЬНО-ИНФОРМАЦИОННЫЙ БАНК

Поиск по сайту







    ЧЧайФ • Внеплановый концерт (аккорды и текст - chords & lyrics)


    860

    Print

    Видео «Внеплановый концерт (ЧайФ)»

    Видео клипы к песне подбираются автоматически сайтом youtube. Возможны некоторые несоответствия клипов песне.

    ↑ Спрятать рекламу ↑



    Download



        C(8)   Am  F(8)  G(10)
    E|--8-8-8-8-5-8--8--10-10|
    B|--8-8-8-8-5-10-10-12-12|
    G|-----------------------|
    D|-----------------------|
    A|-----------------------|
    E|-----------------------|
    
    Затем идёт соло 1:
    E|----------------------|
    B|-----5----------------|
    G|-5/7---7-5---5-4-5/7-5|
    D|-----------7----------|
    A|----------------------|
    E|----------------------|
    
    C        Am  F         G
    А ты сказала, что собиралась
    С одним знакомым пацаном в кино.
    Я предложил тебе другой вариант,
    Ты согласилась, тебе было все равно.
    
    Припев:
       C                   F       G
       Это внеплановый концерт на кухне,
       Это подзарядка наших батарей,
       Это способ не сойти с ума и не опухнуть,
       Чтобы нам с тобой было веселей-ей-ей.
    
    Соло1.
    
    Ты опасалась соратников по парте,
    И они были бдительны, как никогда.
    Я поклялся, что об этом никто не узнает.
    Ты немного поломалась, но не больше чем всегда.
    
    Припев.
    После этого припева идёт соло 2:
    
    E|----------------------|
    B|----------------------|
    G|-5-5h7-5---5-----5---7|
    D|---------7---3-3---5--|
    A|----------------------|
    E|----------------------|
    
    А ты пришла по делам своей фирмы.
    Я не ставил чая, так как не было воды.
    По телевизору транслировали речь президента.
    Я нажал на кнопку и перешел на ты.
    
    Припев.
    Соло1.
    
    Затем следует бас-соло, под которое поётся 4-й куплет.
    Эта, собственно, бас-партия играется на протяжении всей песни:
    
    e|-----------------------------|
    B|-----------------------------|
    G|-----------------------------|
    D|---2-2---------------------2-|
    A|-3-----3-------3-3---5-5-3---|
    E|---------5-5-1-----3---------|
    
    А иногда бывает, мы умираем.
    Нас выжимают, и сил нет терпеть.
    А мы с тобой идем друг к другу, а Беломор по кругу.
    А мы берем гитару и начинаем петь.
    
    Припев.
    Соло1.
    

    Тональность:

    Нет текста!



    Назад
    Рекомендуем посмотреть другие песни исполнителя «ЧайФ»:

    • Комментарии Facebook ()
    • Комментарии ВКонтакте



    Добавить в Избранное Браузера
    Сохранить здесь Очистить


    x

    0


    +
    -

    +
    -

    -

    Авторизация





    Зарегистрироваться

    M

    Дата и время

    • 15:16:20
       

    Социальные ссылки


    Наши приложения

    • Muzbank App Play Market
    • Muzbank Amazon App