MUZBANK



A Most Complete Bank Of Music Information

МУЗЫКАЛЬНО-ИНФОРМАЦИОННЫЙ БАНК

Поиск по сайту







    ЧЧайф • Я рисую на окне (аккорды и текст - chords & lyrics)


    227

    Print

    Видео «Я рисую на окне (Чайф)»

    Видео клипы к песне подбираются автоматически сайтом youtube. Возможны некоторые несоответствия клипов песне.

    ↑ Спрятать рекламу ↑



    Download



      D       H7      Em             A               D      D9 D
    -|2-----------2------0---3-2-0-------0-------0---2-------0h2----|  2 раза
    -|----3---0-------0------------0-2-------2-----2-----3-------3--|
    -|--2---2---2---2---0--0-----------2---2---2-------2---2-------2|
    -|0----------------------------------------------0--------------|
    -|--------2----------------------0------------------------------|
    -|----------------0---------------------------------------------|
                                                                                  
       G               A             D               H7 
    -|-----3-------3-------0-------0-2-------2-----------2---3-2|
    -|-3-------3-------2-------2-3-------3-------3---0----------|
    -|---0---0---0---0---2---2---------2---2---2---2---2---2----|
    -|-------------------------------0-------0------------------|
    -|---------2-------0-----------------------------2----------|
    -|-3--------------------------------------------------------|
                                                                                  
       Em              A               D      D9 D       G A A9A
    -|-----0---3-2-0-------0-------2-0-2-------0-2--------------|
    -|-0-------------0-2-------2-3---------3---------3---3-2-0-2|
    -|---0---0-----------2---2-----------2---2-----2---2--------|
    -|---------------------------------0---------0--------------|
    -|-----------------0-----------------------------------0-0-0|
    -|-0-------------------------------------------------3------|
                                                                                  
    соло Шахрина:
       D   D9 D   G         A   D(outtro)
    -|-2-3-5-10--10-9--7-7--5-2|
    -|-3-3-5-10--10-10-7-7--5-3|
    -|-------------------------|
    -|-------------------------|
    -|-------------------------|
    -|-------------------------|
    
    D  H7        Em
    Я рисую на окне
    A                  D   D9 D
    Глаз твоих косые стрелы.
    D   H7       Em
    Я играю на трубе
    A              D   D9 D
    Водосточной неумело.
    G              A
    Я тебе построю Кижи 
    D                H7
    Взяв от спичек коробок.
      Em        A
    Я летаю над Парижем
               D
    Задевая потолок.
    D D9 D  G  A
    
    Я рисую на окне,
    Я смотрю в пустые стены,
    Оставляя на песке
    Совершенные поэмы.
    Я раскрашиваю грезы,
    Я летаю в облаках.
    О боже, может,
    Может просто я дурак.
    Отчего от счастья слезы,
    Слезы горя, горя море
    Счастья тихий ручеек,
    Убегающий в песок
    
    Я рисую на окне, 
    Сам с собою громко споря.
    Поиск истины в вине,
    Истина чего-то стоит.
    Спит кукушка на часах.
    Может поздно,
    Может рано.
    Нет у времени стоп крана
    Нету крыльев на руках
    Где-то там засох в пустыне
    Счастья тихий ручеек.
    Я один в своей квартире
    А над небом потолок.
    
    D9 0320xx
    H7 20212x
    G  330023
    A  022200
    A9 002200
    Em 022000
    D  2320xx
    

    Тональность:

    Нет текста!



    Назад
    Рекомендуем посмотреть другие песни исполнителя «Чайф»:

    • Комментарии Facebook ()
    • Комментарии ВКонтакте



    Добавить в Избранное Браузера
    Сохранить здесь Очистить


    x

    0


    +
    -

    +
    -

    -

    Авторизация





    Зарегистрироваться

    M

    Дата и время

    • 17:38:09
       

    Социальные ссылки


    Наши приложения

    • Muzbank App Play Market
    • Muzbank Amazon App