MUZBANK



A Most Complete Bank Of Music Information

МУЗЫКАЛЬНО-ИНФОРМАЦИОННЫЙ БАНК

Поиск по сайту







    ЧЧайковский Пётр Ильич • Танец феи Драже. Ор. 71 (для 2-ух гитар) (аккорды и текст - chords & lyrics)


    476

    Print

    Видео «Танец феи Драже. Ор. 71 (для 2-ух гитар) (Чайковский Пётр Ильич)»

    Видео клипы к песне подбираются автоматически сайтом youtube. Возможны некоторые несоответствия клипов песне.

    ↑ Спрятать рекламу ↑



    Download


    E|-------------------------------|----|
    B|-----0-------1-------2-------1-|----|
    G|-----0-------2-------3-------2-|-0/-|
    D|-2-------2-------2-------2-----|-/0-|
    A|-------------------------------|----|
    E|-------------------------------|----|
    
    E|-0-------2-------3---------|----|
    B|-------------------------4-|----|
    G|---------------------------|-0/-|
    D|---------------------------|-/0-|
    A|---------------------------|----|
    E|---------------------------|----|
    
    E|-------------------------------0-------2---0---2---3---------|
    B|----0-----1-----2------3-------2-------4---5---5---5---------|
    G|----0-----2-----3------4-------------------------------------|
    D|-2-----2-----2-----2-------2-------2-------------------20----|
    A|---------------------------------------------------------321-|
    E|-------------------------------------------------------------|
    
    E|-----------------------------------------------0---0---|
    B|-8---8---7---4---5---------------------------0---1---0-|
    G|---9-----------------7-7-7---6-6-6---5-5-5---0---2---0-|
    D|-9---9---7---4---5---6-6-6---5-5-5---4-4-4-------------|
    A|-------------------------------------------------------|
    E|-------------------------------------------------------|
    
    E|-------------------------------------------------------------|
    B|-------------------------------------------------------------|
    G|-------------------------------------------------------------|
    D|---------------------------4-------------------4---4---------|
    A|-1---0-------------------------------------2---3---2---20----|
    E|-----------3-------2---------------2-------6-------------320-|
    
    E|---------------------3-3-3---1-1-1---0-0-0-----2---2---|
    B|-----------------0---2-2-2---0-0-0---1-1-1---4---5---4-|
    G|-5-2-5---4---5---0---3-3-3---1-1-1---2-2-2---4---3---4-|
    D|-3---3---3---4---2---2-2-2---0-0-0---4-4-4-------------|
    A|-------------6-----------------------------------------|
    E|-------------------------------------------------------|
    
    E|-------------------------------0-------2---0---2---3---------|
    B|---0-----1-----2-------3-------2-------4---5---5---5---------|
    G|---0-----2-----3-------4-------------------------------------|
    D|------2-----2------2-------2-------2-------------------5420--|
    A|-----------------------------------------------------------4-|
    E|-0-----------------------------------------------------------|
    
    E|-----------------------------------------------0---0---|
    B|-8---8---7---4---5---------------------------0---1---0-|
    G|---9-----------------7-7-7---6-6-6---5-5-5---0---2---0-|
    D|-9---9---7---4---5---6-6-6---5-5-5---4-4-4-------------|
    A|-------------------------------------------------------|
    E|-------------------------------------------------------|
    
    E|-----------------------------------------------------------2-|
    B|-----------------------------------------------------------1-|
    G|-----------------------------------------------------------2-|
    D|-----4-------421-----2-------20------0-------0-------------0-|
    A|-4--------------42-------------420------------320------------|
    E|-------------------------------------------------3---2--0----|
    
    E|-------------------------------------------------------------|
    B|-----------------------------------------------------------1-|
    G|---------------------------------------------------4------2--|
    D|--------------------------------------------------4-----04---|
    A|-7-4-7---6------5-2-5---4-------3-0-3---2--------6--7--------|
    E|-6---6---5------4---4---3-------2---2---3-------7------------|
    
    E|----------------------------0---------------0-|
    B|----0-------1-------0------1-------04------1--|
    G|---2-------2-------2------2-------2-------2---|
    D|-04------04------14------3-------4-------3----|
    A|----------------------------------------------|
    E|----------------------------------------------|
    
    E|----------------------------0---------------0-|
    B|----0-------1-------0------1-------04------1--|
    G|---2-------2-------2------2-------2-------2---|
    D|-14------04------14------3-------4-------3----|
    A|----------------------------------------------|
    E|----------------------------------------------|
    
    E|------------3-------2-------3-------2-|
    B|---04------4-------4-------4-------4--|
    G|--2------25------24------25------24---|
    D|-4------------------------------------|
    A|--------------------------------------|
    E|--------------------------------------|
    
    E|------------3-------2-------3-------2-|
    B|---04------4-------4-------4-------4--|
    G|--2------25------24------25------24---|
    D|-4------------------------------------|
    A|--------------------------------------|
    E|--------------------------------------|
    
    E|----2-------2-------2-------2----------|
    B|---3-------4-------3-------4-----------|
    G|-25------24------25------24------------|
    D|-------------------------------------2-|
    A|---------------------------------20----|
    E|-----------------------------------32--|
    
    E|--25-------57------5-------57-|
    B|-3-------47-------7------47---|
    G|-----------------7------------|
    D|------------------------------|
    A|------------------------------|
    E|------------------------------|
    
    E|-------------------------------0-------2---0---2---3---------|
    B|----0-----1-----2------3-------2-------4---5---5---5---------|
    G|----0-----2-----3------4-------------------------------------|
    D|-2-----2-----2-----2-------2-------2-------------------20----|
    A|---------------------------------------------------------321-|
    E|-------------------------------------------------------------|
    
    E|-----------------------------------------------0---0---|
    B|-8---8---7---4---5---------------------------0---1---0-|
    G|---9-----------------7-7-7---6-6-6---5-5-5---0---2---0-|
    D|-9---9---7---4---6---6-6-6---5-5-5---4-4-4-------------|
    A|-------------------------------------------------------|
    E|-------------------------------------------------------|
    
    E|-------------------------------------------------------------|
    B|-------------------------------------------------------------|
    G|-------------------------------------------------------------|
    D|---------------------------4-------------------4---4---------|
    A|-1-----0-----------------------------------2---3---2---20----|
    E|-------------3-----2---------------2-------6-------------320-|
    
    E|-----------------------3-3-3---1-1-1---0-0-0-----2---2---|
    B|-------------------0---2-2-2---0-0-0---1-1-1---4---5---4-|
    G|---5-2-5---4---5---0---3-3-3---1-1-1---2-2-2---4---3---4-|
    D|---3---3---3---4---2---2-2-2---0-0-0---4-4-4-------------|
    A|---------------6-----------------------------------------|
    E|---------------------------------------------------------|
    
    E|----------------------------------0-----2---0---2---3--------|
    B|---0-------1-------2-------3------2-----4---5---5---5--------|
    G|---0-------2-------3-------4---------------------------------|
    D|-------2-------2-------2-------2-----2------------------5420-|
    A|-------------------------------------------------------------|
    E|-0-----------------------------------------------------------|
    
    E|------------------------------------------------0---0---|
    B|-8---8---7---4---5---------------------------0----1---0-|
    G|---9-----------------7-7-7---6-6-6---5-5-5---0----2---0-|
    D|-9---9---7---4---5---6-6-6---5-5-5---4-4-4--------------|
    A|--------------------------------------------------------|
    E|--------------------------------------------------------|
    
    E|-----------------------------------------------------------0-|
    B|----------------------------------------------------------0--|
    G|---------------------------------------------------------0---|
    D|-----4---421-----2------20------0-------0---------------2----|
    A|-4----------42------------420------------320-----------------|
    E|--------------------------------------------3---2---0--------|
    
    E|----------------------------------------------------------12-|
    B|---------------------------------------------------------12--|
    G|-----------------------------------------------4--------12---|
    D|----------------------------------------------4--------------|
    A|-7-4-7---6----5-2-5---4-----3-0-3---2--------6--7------------|
    E|-6---6---5----4---4---3-----2---2---3-------7----------------|
    

    Тональность:

    Нет текста!



    Назад
    Рекомендуем посмотреть другие песни исполнителя «Чайковский Пётр Ильич»:

    • Комментарии Facebook ()
    • Комментарии ВКонтакте



    Добавить в Избранное Браузера
    Сохранить здесь Очистить


    x

    0


    +
    -

    +
    -

    -

    Авторизация





    Зарегистрироваться

    M

    Дата и время

    • 00:59:45
       

    Социальные ссылки


    Наши приложения

    • Muzbank App Play Market
    • Muzbank Amazon App