MUZBANK



A Most Complete Bank Of Music Information

МУЗЫКАЛЬНО-ИНФОРМАЦИОННЫЙ БАНК

Поиск по сайту







    ЧЧайковский Пётр Ильич • Вальс цветов, Ор.71 (аккорды и текст - chords & lyrics)


    858

    Print

    Видео «Вальс цветов, Ор.71 (Чайковский Пётр Ильич)»

    Видео клипы к песне подбираются автоматически сайтом youtube. Возможны некоторые несоответствия клипов песне.

    ↑ Спрятать рекламу ↑



    Download


    |--3--| - триоль
    3/4
      |     |     |      |     |     |      |     |     |
    E|------------------|------------------|--------------|
    B|------------0-----|1---------------0-|0-------------|
    G|------0-----------|2-----------------|0-------------|
    D|0-----------------|1-----------------|0-------------|
    A|------------------|------------------|------------2-|
    E|------------------|------------------|------3-------|
    
      |     |     |      |     |     |      |     |     |
    E|------------------|------------------|------------------|
    B|------------0-----|------------0-----|1-----0-----------|
    G|------0-----------|------0-----------|2---------------2-|
    D|0-----------------|0-----------------|1-----------------|
    A|------------------|------------------|------------------|
    E|------------------|------------------|------------------|
    
      |     |     |      |     |     |      |     |     |
    E|------------------|------------------|--------------|
    B|3-----------------|------------------|---0-----0----|
    G|0-----------0-----|---------------0--|1-----1-----2-|
    D|0-----------------|------0--2--3-----|--------------|
    A|------------------|------------------|--------------|
    E|------------------|3-----------------|--------------|
    
      |     |     |      |     |     |      |     |     |
    E|------------------|------------------|-----------------|
    B|------------------|0--3--0--3--1-----|---------0--1--3-|
    G|---------0--1--2--|------------2-----|------2----------|
    D|------3-----------|------------2-----|-----------------|
    A|0-----------------|------------------|3----------------|
    E|------------------|------------------|-----------------|
    
      |     |     |      |     |     |      |     |     |
    E|---2--0-----0--2--|5--3--2--3--0-----|--------------|
    B|4--------4--------|---------------1--|0-------------|
    G|------------------|------------------|------------2-|
    D|------------------|------------------|--------------|
    A|------------------|------------------|--------------|
    E|------------------|------------------|--------------|
    
      |     |     |      |     |     |      |     |     |
    E|------------------|------------------|------------------|
    B|------------------|------------0-----|1---------------0-|
    G|---1--0-----------|------0-----------|2-----------------|
    D|---------4--2--1--|0-----------------|1-----------------|
    A|------------------|------------------|------------------|
    E|------------------|------------------|------------------|
    
      |     |     |      |     |     |      |     |     |
    E|------------------|------------------|--------------|
    B|0-----------------|------------0-----|------------0-|
    G|0-----------------|------0-----------|------0-------|
    D|0-----------------|0-----------------|0-------------|
    A|------------2-----|------------------|--------------|
    E|------3-----------|------------------|--------------|
    
      |      |     |     |     |     |      |     |     |
    E|------------------|------------------|-----------------|
    B|1------0----------|3-----------------|------------0--2-|
    G|2---------------2-|0-----------0-----|------0--2-------|
    D|1-----------------|0-----------------|-----------------|
    A|------------------|------------------|-----------------|
    E|------------------|------------------|3----------------|
    
      |     |     |      |     |     |      |     |     |
    E|---0-----0--------|---------------0--|2--3--1--3--2-|
    B|3-----2-----3-----|------1--2--3-----|------------3-|
    G|------------------|------------------|------------4-|
    D|------------------|------------------|--------------|
    A|------------------|1-----------------|--------------|
    E|------------------|------------------|--------------|
    
      |     |     |      |     |     |      |     |     |
    E|---------------6--|7--9--10-6--9--7--|10-6--9--7--10-7-|
    B|------6--7--8-----|------------------|-----------------|
    G|------------------|------------------|-----------------|
    D|------------------|------------------|-----------------|
    A|4-----------------|------------------|-----------------|
    E|------------------|------------------|-----------------|
    
      |     |     |      |     |     |      |     |     |
    E|10-7--10-7--10-6--|7-----------------|7-------------|
    B|------------------|7--------7--8--10-|8-----------7-|
    G|------------------|7--7--9-----------|7-------------|
    D|------------------|------------------|--------------|
    A|------------------|------------------|--------------|
    E|------------------|------------------|--------------|
    
                                           |--3--|
      |     |     |      |     |     |      |     |     |
    E|5-----------0-----|3-----------------|2-3-2-1-----2-|
    B|3-----------------|1-----------1-----|1-------------|
    G|4-----------------|2-----------------|2-------------|
    D|5-----------------|2-----------------|--------------|
    A|------------------|------------------|--------------|
    E|------------------|------------------|--------------|
    
      |     |     |      |     |     |      |     |     |
    E|8-----------------|7-----------------|5-------------|
    B|5-----------8-----|5-----------7-----|3-----------3-|
    G|5-----------------|5-----------------|4-------------|
    D|5-----------------|4-----------------|5-------------|
    A|------------------|------------------|--------------|
    E|------------------|------------------|--------------|
    
     |--3--|
      |     |     |      |     |     |      |     |     |
    E|3-5-3-2-----3-----|7-----------------|5-----------0-|
    B|------------------|8-----------7-----|3-------------|
    G|------------------|7-----------------|4-------------|
    D|------------------|------------------|5-------------|
    A|------------------|------------------|--------------|
    E|------------------|------------------|--------------|
    
                        |--3--|
      |     |     |      |     |     |      |     |     |
    E|3-----------------|2-3-2-1-----2-----|8-------------|
    B|1-----------1-----|1-----------------|8-----------8-|
    G|2-----------------|2-----------------|8-------------|
    D|2-----------------|------------------|--------------|
    A|------------------|------------------|--------------|
    E|------------------|------------------|--------------|
    
      |     |     |      |     |     |      |     |     |
    E|8-----------------|8-----------5-----|10----------------|
    B|5-----------9-----|6-----------------|7--------7--8--10-|
    G|5-----------------|5-----------------|---7--9-----------|
    D|6-----------------|7-----------------|------------------|
    A|------------------|------------------|------------------|
    E|------------------|------------------|------------------|
    
      |     |     |      |     |     |      |     |     |
    E|7-----------------|5-----------0-----|3-------------|
    B|8-----------7-----|3-----------------|1-----------1-|
    G|7-----------------|4-----------------|2-------------|
    D|------------------|5-----------------|2-------------|
    A|------------------|------------------|--------------|
    E|------------------|------------------|--------------|
    
     |--3--|
      |     |     |      |     |     |      |     |     |
    E|2-3-2-1-----2-----|8-----------------|7-------------|
    B|1-----------------|5-----------8-----|5-----------7-|
    G|2-----------------|5-----------------|5-------------|
    D|------------------|5-----------------|4-------------|
    A|------------------|------------------|--------------|
    E|------------------|------------------|--------------|
    
                        |--3--|
      |     |     |      |     |     |      |     |     |
    E|5-----------------|3-5-3-2-----3-----|7-------------|
    B|3-----------3-----|------------------|8-----------7-|
    G|4-----------------|------------------|7-------------|
    D|5-----------------|------------------|--------------|
    A|------------------|------------------|--------------|
    E|------------------|------------------|--------------|
    
                                           |--3--|
      |     |     |      |     |     |      |     |     |
    E|5-----------0-----|3-----------------|2-3-2-1-----2-|
    B|3-----------------|1-----------1-----|1-------------|
    G|4-----------------|2-----------------|2-------------|
    D|5-----------------|2-----------------|--------------|
    A|------------------|------------------|--------------|
    E|------------------|------------------|--------------|
    
      |     |     |      |     |     |      |     |     |
    E|0-----------------|0-----------------|2----------------|
    B|0-----------3-----|2-----------3-----|1----------------|
    G|0-----------------|4-----------------|2----------------|
    D|------------------|------------------|------0--1--2--4-|
    A|------------------|------------------|-----------------|
    E|------------------|------------------|-----------------|
    
      |     |     |
    E|------------3-|
    B|------------0-|
    G|0-----------0-|
    D|------------0-|
    A|------------2-|
    E|------------3-|
    
    

    Тональность:

    Нет текста!



    Назад
    Рекомендуем посмотреть другие песни исполнителя «Чайковский Пётр Ильич»:

    • Комментарии Facebook ()
    • Комментарии ВКонтакте



    Добавить в Избранное Браузера
    Сохранить здесь Очистить


    x

    0


    +
    -

    +
    -

    -

    Авторизация





    Зарегистрироваться

    M

    Дата и время

    • 03:31:10
       

    Социальные ссылки


    Наши приложения

    • Muzbank App Play Market
    • Muzbank Amazon App